Tablatura para Bajo de Caifanes: Matenme porque me muero
Conexión · Inscripción
Letras y Acordes
Pantalla Completa
Imprimir
Versión Texto
Añadir Favorito
Otras Versiones

Mostrar Diagramas
Desfile Automático
Formato del Texto


Matenme porque me muero(BAJ)

Caifanes

calidad:
caif0345
AUTOR: Saul Hernandez
ALBUM: Caifanes (1990)
Enviado por yambari
Que tal!! espero les guste esta versión, para mi suena bastante bien.
Lo único es que, tienen que agarrarle bien el ritmo a la canción.

Intro
G|------------5---4-2------------5---4-2--|
D|----5------------------5----------------|
A|--------5------------------5------------| x2
E|--3---3---3---3------0---0---0---0------|

Verso
G|--------------------0h2-0----------------------------|
D|--------------------------2-0------------------------|
A|------------------------------3-2--------------------|
E|-33333333-00000000-----------------33333333-00000000-|
Cuando me muera...

G|----------------------------------------------------|
D|-3333-2-3-2-----------------------------------------|
A|------------5555--3-5-3------0000--2------0000--2—0-|x3
E|------------------------3333---------3333-----------|
Para que no me de miedo...

Pre-coro
G|-----------------------------------------|
D|-3333-2-3-2------------------------------|
A|------------5555--3-5-3------0-2---0--2—-|
E|------------------------3333-----3-------|
 Y sentirme un poquito...

Coro
G|-----------------------------|
D|-----------------------------|
A|-----------------------------| x3
E|-33333333-22222222-00000000--|
Matenme por que...

G|-----------------------------|-----------------------------|---|
D|-----------------------------|-----------------------------|---|
A|--0-00-0-3-33-3-2-22-2-2-22--|--0-00-0-3-33-3-2-22-2-2-22--|---|
E|-----------------------------|-----------------------------|-1-|
Esta enfermedad...

G|------------5---4-2------------5---4-2--|
D|----5------------------5----------------|
A|--------5------------------5------------|
E|--3---3---3---3------0---0---0---0------|

Verso 2
G|--------------------0h2------------------------------|-0h2—0----------|
D|------------------------2-0--------------------------|--------2-0—--0-|
A|----------------------------3-2----------------------|------------3---|
E|-33333333-00000000----------------33333333—00000000--|----------------|
Cuando me muera...

G|----------------------------------------------------|
D|-3333-2-3-2-----------------------------------------|
A|------------5555--3-5-3------0000--2------0000--2—0-|x3
E|------------------------3333---------3333-----------|
Por si alguna vez me buscas...

G|-----------------------------------------|
D|-3333-2-3-2------------------------------|
A|------------5555--3-5-3------0-2---0--2—-|
E|------------------------3333-----3-------|
Te guardare mil estrellas...

Coro
G|-----------------------------|
D|-----------------------------|
A|-----------------------------| x6
E|-33333333-22222222-00000000--|
Matenme por que...

G|-----------------------------------------------------------------------|
D|-----------------------------------------------------------------------|
A|-------------------77---77---77---77-------------------7-7-7-7-7-7-7-7-|
E|-33333333-22222222----7----7----7----33333333-22222222-----------------|
(Aquí entra solo del teclado)

G|--------------------------------------------------------------------|---|
D|---------------------------------------9---9----9--9----------------|---|
A|-------------------77---77---77---77-10--10-10-9--9-9-7-7-7-7-7-7-7-|---|
E|-33333333-22222222----7----7----7-----------------------------------|-0-|

cualquier cosa escríbanme a: lcx_137@hotmail.com, se aceptan comentarios
y sugerencias.
Este fichero es trabajo propio de su transcriptor y representa su interpretación personal de la canción. El material contenido en esta página es
para exclusivo uso privado, por lo que se prohibe su reproducción o retransmisión, así como su uso para fines comerciales.

© LaCuerda.net · Aviso Legal · Privacidad