Tablatura para Guitarra de Caifanes: Matenme porque me muero
Conexión · Inscripción
Letras y Acordes
Pantalla Completa
Imprimir
Versión Texto
Añadir Favorito
Otras Versiones

Mostrar Diagramas
Desfile Automático
Manipular Acordes
Formato del Texto


Matenme porque me muero(TAB)

Caifanes

calidad:
caif0344
AUTOR: Saul Hernandez
ALBUM: Caifanes (1990)
Enviado por Paul
Esta es la introduccion de la cancion. Este Tab esta Completo.
Varias veces
e-15~------------19-17-15----|
b----15~-13~-12~-------------|
g----------------------------|
d----------------------------|
a----------------------------|
e----------------------------|

Y luego

e--3------3------------------|
b----3------3----------------|
g------0------0--------------|
d----------------------------|
a----------------------------|
e----------------------------|

Mientras canta 'Para que no me de miedo estar abajo...'
varias veces (la ultima vez hasta la ^).
                              ^
e-8---8--8--8--10---10---10---10-12-12-12-10----------------|
b-6-6--6--6--6----6----6----6-------------------------------|
g-----------------------------------------------------------|
d-----------------------------------------------------------|
a-----------------------------------------------------------|
e-----------------------------------------------------------|

Luego mientras que canta 'Maten me por que me muero' entra el riff
de a continuacion 
e--15-3------|
b------------|
g------------|
d------------|
a------------|
e------------|

Luego se repite todo otra vez y despues del coro entra el solo
siguiente.
e-------7-3-2-0--------7-3-2-3-2-3-0-----|
b-0bend----------0bend-------------------|
g----------------------------------------|
d----------------------------------------|
a----------------------------------------|
e----------------------------------------|

e-------7-3-2-0--------7-3-2-3-2-3-0-----|
b-0bend----------0bend-------------------|
g----------------------------------------|
d----------------------------------------|
a----------------------------------------|
e----------------------------------------|

e-------7-3-2-0------|
b-0bend--------------|
g--------------------|
d--------------------|
a--------------------|
e--------------------|

eso es todo espero que les guste
cualquier duda o comentario a
caifan_4315@yahoo.com
Este fichero es trabajo propio de su transcriptor y representa su interpretación personal de la canción. El material contenido en esta página es
para exclusivo uso privado, por lo que se prohibe su reproducción o retransmisión, así como su uso para fines comerciales.

© LaCuerda.net · Aviso Legal · Privacidad