Acordes de Guitarra » C »Caifanes » Aquí no es así (Tab)

Aquí no es así
Caifanes

Letras, Acordes y Tabs para Guitarra, Bajo y Ukulele

  • E ---------------------------------------------------
    B -----------------------------------------------6-6-
    G 7-7-7-7-5-5-5-7-7-5-3---3-----3---7-7-7-7-5-5-5---7
    D ---------------------3-5-5-3-5---------------------
    A ---------------------------------------------------
    E ---------------------------------------------------
    
    E ----------------------------------------------------
    B ----------------------------------------------------
    G 7-7-7-7-5-5-5-7-7-5-3---3-----3---7-7-7-7-5-5-------
    D ---------------------3-5-5-3-5---------------7-8-7-5
    A ----------------------------------------------------
    E ----------------------------------------------------
    
    
    A#      F  Gm         A#     F    Gm
    Vienes caminando y no sabes tu destino
    A#      F     Gm                A#     F     Gm
    conquistando suenios suenias llegar a ser deidad
    A#      F  Gm          A#      F   Gm
    
  • A         C#m  F#m
      Vienes caminando 
            A   C#m   F#m
      Y no sabes tu destino,
    A        C#m    F#m
      Conquistando sueños
                A     C#m    F#m
      Sueñas llegar a ser deidad.
    
    A         C#m  F#m
      Sigues caminando 
              A   C#m  F#m
      Sobre viejos territorios
    A     C#m    F#m
      Invocando fuerzas que 
         A    C#m  F#m
      jamás entenderas.
    
    E
     Y vienes desde allá 
    
  • INTRO
    -----
    E |----------------|-------------------|---------------|
    B |----------------|-------------------|---------------|
    G |--5/7--7-7-7--5-|-5-5--7-7-5--------|---------------|
    D |----------------|-------------8---5-|-8~~~5---5--8--|
    A |----------------|---------------8---|-------8-------|
    E |----------------|-------------------|---------------|
    
    
    E |----------------|-------------------|---------------|
    B |----------------|-----6-6-----------|---------------|
    G |--5/7--7-7-7--5-|-5-5-----7---------|----(7)--------|
    D |----------------|-------------------|---------------|
    A |----------------|-------------------|---------------|
    E |----------------|-------------------|---------------|
    
       Riff A-----------------------------------------------
    E |----------------|-------------------|---------------|
    B |----------------|-------------------|---------------|
    G |--5/7--7-7-7--5-|-5-5--7-7-5--------|---------------|
    D |----------------|------------8---5--|--8~~~5--5--
  • Riff A
      |----------------|-------------------|---------------|
      |----------------|-------------------|---------------|
      |--5/7--7-7-7--5-|-5-5--7-7-5--------|---------------|
      |----------------|------------8---5--|--8~~~5--5--8--|
      |----------------|--------------8----|--------8------|
      |----------------|-------------------|---------------|
    
    
      |----------------|-------------------|---------------|
      |----------------|-------------------|---------------|
      |--5/7--7-7-7--5-|-------------------|---------------|
      |----------------|--8--7--8--7--5\---|---------------|
      |----------------|-------------------|---------------|
      |----------------|-------------------|---------------|
    
    Verso 1 (4 Veces)
         |-------------------|---------------------|
         |-------------------|---------------------|
         |-------------------|---------------------|
    
  • -----
    E |----------------|-------------------|---------------|
    B |----------------|-------------------|---------------|
    G |--5/7--7-7-7--5-|-5-5--7-7-5--------|---------------|
    D |----------------|-------------8---5-|-8~~~5---5--8--|
    A |----------------|---------------8---|-------8-------|
    E |----------------|-------------------|---------------|
    
    
    E |----------------|-------------------|---------------|
    B |----------------|-----6-6-----------|---------------|
    G |--5/7--7-7-7--5-|-5-5-----7---------|----(7)--------|
    D |----------------|-------------------|---------------|
    A |----------------|-------------------|---------------|
    E |----------------|-------------------|---------------|
    
       Riff A-----------------------------------------------
    E |----------------|-------------------|---------------|
    B |----------------|-------------------|---------------|
    G |--5/7--7-7-7--5-|-5-5--7-7-5--------|---------------|
    
  • Verso-
    G|--------------------------------------------------|
    D|--------------------------------------------------|    
    A|-------5-----------5----------5-------------------|   
    E|--6-6----6----5-5---5-----3-3---3--33-3---0-3-5---|
    
    “Y vienes desde aya donde no sale el sol, donde no ahi calor...”
    G|-----------------------------|
    D|-----------------------------|
    A|-----------------------------|   x2
    E|-1-1-1-1--1----3-3-3-3-3-3---|
    
    Coro
    G|------------------------------------------------------------|
    D|------------------------------------------------------------| 
    A|------------------------------------------------------------|    
    E|-7-7-7-7-7--5-5-5-5-5-5-5--4-4-4-4-4-4-4-4--2-2-2-2-2-2-2---|
    
    Intermedio:
    G|-------------------------------|---------|
    D|--5--3h5--3--------------------|---------|
    A|--------------5p3--5-----------|-3--5----|   x3
    E|-------------------------------|---------|
    
    Despues de la tercera vez toca esto:
    G|----------------|------------------
  • este es el bajeo completo.
    Intro que llamaremos (Verso 1)que es el principal
    (V1)se toca mientras canta hasta...
    
    g----------------------------------------------|
    d-----0---------0-------0----------------------|
    a-1-1---1-0-0-0---0-----------0----------------|
    e-------------------3-3---3-3------------------|
    (V2)
    'y vienes desde a ya...' hasta
    g----------------------------------------------|
    d----------------------------------------------|
    a----------------------------------------------|
    e-1-1-1-3-1--1-1-1-2-3--2-3-3-1-3--3-3-3-3-1---|
    (V3)
    'pero aqui noes asi...'
    g-0-2---0---0----------------------------------|
    d-----3---3---3--0-0-0-0-0-0-0-0-0-0-0-0-0-0-0-|
    a----------------------------------------------|
    e----------------------------------------------|
    
    g---------------------------------|
    d---------------------------------|
    a-3-3-3-3-3-3-3-3-3-3-3-3-3-3-3-3-|
    e---------------------------------|
    
    g---------------------------------|
    d-----------------------
  •  INTRO 
    G-------------------------------------|
    D-------------------------------------|
    A-----5---------5-------5-----5-------|
    E-6-6---6-5-5-5---5-3-3--3-3-3--3-----|
    
     LETRA
      VIENES CAMINANDO........
    G-------------------------------------|
    D-------------------------------------|
    A-----5---------5-------5-----5-------|
    E-6-6---6-5-5-5---5-3-3--3-3-3--3-----|
    
    
    
    
     PRE-CORO
      Y VIENES DESDE...........
    G-------------------------------------------------|
    D-------------------------------------------------|
    A-----3-------3-------5-------5-------------------|
    E-1-1---1-1-1---1-3-3---3-3-3---3-----------------|
    
     CORO
      PERO AQUI NO ES ASI.......
    G------------------------------------------------------
    D------------------------------------------------------
    A-55555555555555---3333333333333----111111111---------
    S---------------------------------------------111111--3
    
     SOLO BAJO
    g------------------------------------------------------
    d-5------5-3-----------3-5--
  • +
    ¡Colabora con nosotros!
    Envíanos tu versión de esta canción
  • Tutorial
    HD
    Como tocar AQUI NO ES ASI en guitarra - Caifanes [Tutorial Somos Posers]
    13:11

Letra de Aquí no es así
Vienes caminando y no sabes tu destino
conquistando suenios suenias llegar a ser deidad
Sigues caminando sobre viejos territorios
ignorando fuerzas que jamas entenderas
Y vienes desde alla donde no sale el sol donde no hay calor
donde la sangre nunca se sacrifico por un amor
pero aqui no es asi
ah ah ah
Sigues caminando ignorando sagrados ritos
pisoteando sabios templos de amor espiritual
Larga vida sigue velando el suenio de un volcan
para un alma en pena cada piedra es un altar
Y vienes desde alla donde no sale el sol donde no hay calor
donde la sangre nunca se sacrifico por un amor
pero aqui no es asi
ah ah ah
(parte de bajo)
< estas notas se tocan juntas >
Y vienes desde alla donde no sale el sol donde no hay calor
donde la sangre nunca se sacrifico por un amor
Y vienes desde alla donde no sale el sol donde no hay calor
donde la sangre nunca se sacrifico por un amor
< figura que va arriba de los versos (varia cada vuelta) >




[Aquí no es así chords][Aquí no es así cifra]
© LaCuerda.net · aviso legal · privacidad · es · en · pt · contacto