Tablatura para Guitarra de Caifanes: Aquí no es así
Conexión · Inscripción
Letras y Acordes
Pantalla Completa
Imprimir
Versión Texto
Añadir Favorito
Otras Versiones

Mostrar Diagramas
Desfile Automático
Manipular Acordes
Formato del Texto


Aquí no es así(TAB)

Caifanes

calidad:
caif0082
AUTOR: Alfonso Andre, Saul Hernández, A. Marcovich
ALBUM: El Nervio del Volcan (1994)
Enviado por Joe
INTRO
-----
E |----------------|-------------------|---------------|
B |----------------|-------------------|---------------|
G |--5/7--7-7-7--5-|-5-5--7-7-5--------|---------------|
D |----------------|-------------8---5-|-8~~~5---5--8--|
A |----------------|---------------8---|-------8-------|
E |----------------|-------------------|---------------|


E |----------------|-------------------|---------------|
B |----------------|-----6-6-----------|---------------|
G |--5/7--7-7-7--5-|-5-5-----7---------|----(7)--------|
D |----------------|-------------------|---------------|
A |----------------|-------------------|---------------|
E |----------------|-------------------|---------------|

   Riff A-----------------------------------------------
E |----------------|-------------------|---------------|
B |----------------|-------------------|---------------|
G |--5/7--7-7-7--5-|-5-5--7-7-5--------|---------------|
D |----------------|------------8---5--|--8~~~5--5--8--|
A |----------------|--------------8----|--------8------|
E |----------------|-------------------|---------------|

   
E |----------------|-------------------|---------------|
B |----------------|-------------------|---------------|
G |--5/7--7-7-7--5-|-------------------|---------------|
D |----------------|--8--7--8--7--5\---|---------------|
A |----------------|-------------------|---------------|
E |----------------|-------------------|---------------|

                4 veces
E |-------------------|---------------------|
B |-------------------|---------------------|
G |-------------------|---------------------|
D |---0-3-0---0-3-0-3-|--5---5-3-5------5-3-|
A |--1------3---------|----5-------5--5-----|
E |-------------------|---------------------|

E |-----------------------|-----------------------|
B |-----------------------|-----------------------|
G |-----------------------|-----------------------|
D |----------3-3--2--3--5-|----------3-3--2--3--4-|
A |------0-3--------------|------0-3--------------|
E |--1-1------------------|--1-1------------------|
           
E |-----------------------|-----------------------|
B |-----------------------|-----------------------|
G |-----------------------|-----------------------|
D |--5---5-3--5------5-3--|--5---5-3--5-------5-3-|
A |----5--------5--5------|----5---------5--5-----|
E |-----------------------|-----------------------|

             4 veces            4 veces      
E |-----------------------||--18~~~~~~-15--20--15--|
B |--18~~~~~~-15--18--15--||-----------------------|
G |-----------------------||-----------------------|
D |-----------------------||-----------------------|
A |-----------------------||-----------------------|
E |-----------------------||-----------------------|


E |--18~~~~~~-15--20------|---------------------|
B |-------------------20--|--20-20-18--18-18-16-|
G |-----------------------|---------------------| 
D |-----------------------|---------------------|
A |-----------------------|---------------------|
E |-----------------------|---------------------|

E |-----------------------|
B |--16-16--15--13--------|
G |----------------15-14--|
D |-----------------------|
A |-----------------------|
E |-----------------------|


E |----------------------|  |----------------------|
B |----------------------|  |---------------6-6----|
G |----/7------5---------|  |----/7---5-5-5------5-| 
D |------------------8---|  |----------------------|
A |----------------------|  |----------------------|
E |----------------------|  |----------------------|

E |----------------------|  |----------------------|
B |----------------------|  |----------------------|
G |----/7---5-5-5--7-7---|  |----/7---5-5-5--7-7---|
D |--------------------8-|  |--------------------5-|
A |----------------------|  |----------------------|
E |----------------------|  |----------------------|


CORO
----
            4 veces                 3 veces
E |----------------------|--20~~~~~~--15---18--15-|
B |--18~~~~~--15--18--15-|------------------------|
G |----------------------|------------------------|
D |----------------------|------------------------|
A |----------------------|------------------------|
E |----------------------|------------------------|

                                   4 veces
E |--20~~~~~--15-18-15---|----------------------|
B |-------------------18-|--18--15----15~~~~~~~-|
G |----------------------|---------15-----------|
D |----------------------|----------------------|
A |----------------------|----------------------|
E |----------------------|----------------------|


E |--20--17----20--17----|--17------------------|
B |---------18--------18-|-----18----18~~~~~~~--|
G |----------------------|--------17------------|
D |----------------------|----------------------|
A |----------------------|----------------------|
E |----------------------|----------------------|


E |----------------------|----------------------|
B |----------------------|----------------------|
G |--17--14----17--14----|--17--14----14---12\--|
D |---------15--------15-|---------15-----------|
A |----------------------|----------------------|
E |----------------------|----------------------|



SOLO
----                  
E |-----------------------|-----------------------|-------------------------|
B |-----------------------|-----------------------|-------------------------|
G |------------------10---|---------10-10-9-10-12-|-10---------10-10-9-10-11|
D |-10-8-7----------------|----7-10---------------|----10-7-10--------------|
A |--------10-8-7-10------|--8--------------------|-------------------------|
E |-----------------------|-----------------------|-------------------------|

E |----------------------------|----------------------|
B |----------------------------|----------------------|
G |-12~~----------12~~--14--15-|-14-12-15-14-12-15-14-|
D |------12----12--------------|----------------------|
A |---------13-----------------|----------------------|
E |----------------------------|----------------------|

E |------------------------|------------------------------|
B |------------------------|------------------------------|
G |-12----------10-10------|-10~~----------------14-12-10-|
D |----15-13-12-------7-10-|------10-12-13-12-10----------|
A |------------------------|------------------------------|
E |------------------------|------------------------------|

E |-------------------------|---------------------------|
B |-------------------------|----15/17---18-18-18-18-18-|
G |-------10-------------10-|-15-15/17---19-19-19-19-19-|
D |-13-12----12-------12----|---------------------------|
A |-------------13-13-------|---------------------------|
E |-------------------------|---------------------------|

E |-----------------------|
B |-17-15-17-15-----------|
G |-17-15-17-15-14~~~~~~--|
D |-----------------------|
A |-----------------------|
E |-----------------------|

PRE-CORO
--------
 
E |---------1----------|     |---------3----------|     |
B |-----1---------1----|     |-----3---------3----|     |
G |---2---2---2-----2--|  %  |---3---3---3-----3--|  %  |
|
D |-3-----------3------|     |-5-----------5------|     |
A |--------------------|     |--------------------|     |
E |--------------------|     |--------------------|     |
Este fichero es trabajo propio de su transcriptor y representa su interpretación personal de la canción. El material contenido en esta página es
para exclusivo uso privado, por lo que se prohibe su reproducción o retransmisión, así como su uso para fines comerciales.

© LaCuerda.net · Aviso Legal · Privacidad