Tablatura para Bajo de Caifanes: Aquí no es así
Conexión · Inscripción
Letras y Acordes
Pantalla Completa
Imprimir
Versión Texto
Añadir Favorito
Otras Versiones

Mostrar Diagramas
Desfile Automático
Formato del Texto


Aquí no es así(BAJ)

Caifanes

calidad:
caif0088
AUTOR: Alfonso Andre, Saul Hernández, A. Marcovich
ALBUM: El Nervio del Volcan (1994)
Enviado por saul
 INTRO 
G-------------------------------------|
D-------------------------------------|
A-----5---------5-------5-----5-------|
E-6-6---6-5-5-5---5-3-3--3-3-3--3-----|

 LETRA
  VIENES CAMINANDO........
G-------------------------------------|
D-------------------------------------|
A-----5---------5-------5-----5-------|
E-6-6---6-5-5-5---5-3-3--3-3-3--3-----|




 PRE-CORO
  Y VIENES DESDE...........
G-------------------------------------------------|
D-------------------------------------------------|
A-----3-------3-------5-------5-------------------|
E-1-1---1-1-1---1-3-3---3-3-3---3-----------------|

 CORO
  PERO AQUI NO ES ASI.......
G------------------------------------------------------
D------------------------------------------------------
A-55555555555555---3333333333333----111111111---------
S---------------------------------------------111111--3

 SOLO BAJO
g------------------------------------------------------
d-5------5-3-----------3-5-----3----------3-5-----3----
a------5-----5-3-5---5-----3-5---5-3-5--5-----3-5---5-3-111111--3--|
e------------------------------------------------------

g-5-3-2-------------|
d-------5-3-2-5-3---|
a-------------------|
e-------------------|


 SOLO GUITARRA (SE REPITE VARIAS VECES) 
G-----------------------------------------|
D-----------------------------------------|
A-----------------------------------------|
E-111111111--333333333-111111111-333333333|

 
 PRE-CORO
  Y VIENES DESDE...........
G-----------------------------------------|
D-----------------------------------------|
A-----3-------3-------5-------5-----------|
E-1-1---1-1-1---1-3-3---3-3-3---3---------|


 ULTIMO CORO
 AH,AHAHAH,AH.....(VARIAS VECES HASTA TERIMINAR)
G--------------------------------------|
D--------------------------------------|
A--------------------------------------|
E-1111-33333-1111-66666----------------|


=================================================
Trancripcion de saul sanchez caifaguares chicali
 (el_gorila_con_alas_@todito.com.mx)esta es mi nueva
 direccion ya no es (nahual@fiberia)
Este fichero es trabajo propio de su transcriptor y representa su interpretación personal de la canción. El material contenido en esta página es
para exclusivo uso privado, por lo que se prohibe su reproducción o retransmisión, así como su uso para fines comerciales.

© LaCuerda.net · Aviso Legal · Privacidad