Acordes de Guitarra » C »Caifanes » Perdí mi ojo de Venado (Tab)

Perdí mi ojo de Venado
Caifanes

Letras, Acordes y Tabs para Guitarra, Bajo y Ukulele

  • D         E7        F#m
     Perdi mi ojo de venado, 
    D      E7            F#m     
     nadie me va a proteger;
    D           E7             F#m
     vuelo mi cuerpo entre tinieblas.
    D        E7            F#m 
     Dona Macabra viene a ver,
    
    
    A                      F#m 
     por las noches me platica 
    A                       F#m 
     de la magia de la soledad,
    A                 F#m
     me congelan las orejas, 
    A                        F#m
     creo que me quieren llevar.
    
    G A 
    
  • Em F Em F x2
    
    VERSO 1:
    D      E      F#m
    Perdí mi ojo de venado
    D      E      F#m
    Nadie me va a proteger,
    D      E      F#m
    Vuelo mi cuerpo entre tinieblas
    D      E      F#m
    Doña Macabra viene a ver;
    
    PUENTE:
      A                F#m
    Por las noches me platica
      A                F#m
    De la magia de la soledad,
      A                F#m
    Me congelan las orejas,
      A                F#m     G-A
    
  •      Em                         Em
    
    E ---0---------------------------0----------------------------------
    B ---0------1---0--0--1--0--0---10----1--0--0--1---0---0--1--0-------
    G ---0----2---2---2--2--2--2--2--0---2--2--2--2--2--2---2--2--------
    D ---2---------------------------2----------------------------------
    A ---2---------------------------2----------------------------------
    E ---0---------------------------0----------------------------------
    
    
    
    VERSO:
    
    D         E        F#m
    PERDI MI OJO DE VENADO  
    D         E        F#m 
    NADIE ME VA A PROTEGER
    D         E             F#m
    VUELO MI CUERPO ENTRE TINIEBLAS 
    D         E           F#m
    
  • Esta cancion es la version en vivo el teclado transpuesto a guitarra
    
    INTRO:
    
    
         Em                         
    
    E ---0--------------------------------0-     X2
    B ---0-----1---0---0---1---0---0---1--0-
    G ---0---2---2---2---2---2---2---2----0-
    D ---2--------------------------------2-
    A ---2--------------------------------2-
    E ---0--------------------------------0-                                              
    lo que originalmente era con teclados ahora es con la lira y la toca el vampiro
    
    E ---------------------------------------
    B ---------------------------------------
    G ---------------------------------------
    D ----5--7/8--9--5-------5--7/8-9-7-6-5-3-
    A ----------------------------------------
    E ----------------------------------------
    
    
    el solo es asi
    
    
    E ----3---5-------6---7---------------------
    B --2---2-------5---5-------------5-6-7--------
    G ------------------------4/5-6-7-------5-7--
    D -------------------------------------------
    A ----------------
  • este es el solo:
    
    e-----3-----3-----5-----5---------
    B---------------------------------
    G-5(6)--5(6)--7(8)--7(8)----------
    D---------------------------------
    A---------------------------------
    E---------------------------------
    
    e---------------------7-----------
    B----------------------7-5/7------
    G-4-6-7/11-11-7-6-6-4-------------
    D---------------------------------
    A---------------------------------
    E---------------------------------
    
    e---------------------------------
    B---------------------------------
    G-4-6-7/11-11-7-6-6-4-6-7-6-7-9---
    D---------------------------------
    A---------------------------------
    E---------------------------------
    
    e---------------------------------
    B---------7-7-7-7-7-7-7-----------
    G-7-6-6-4-------------------------
    D---------------------------------
    A---------------------------------
    E---------------------------------
    
    e---------------------------------
    B-------------------7-8-8-10-10(11)
    G-6-7-6-7-9-7-6-6-4---------------
    
  • Esta es una canción interesante y un poco complicada
    Tiene varios adornos pero están muy padres
    Hechos por un maestro del bajo Sabo Romo
    
    Entra sola la guitarra y cuando termina de hacer
    el remate la bataca entra el bajo con lo siguiente
    Riff1:
     |    E     |    F   |     D       |
    G|----------|--------|-------------|
    D|----------|--------|------------3|
    A|----------|--------|5/777-5-3-5--|
    E|0000000000|11111111|-------------|
    
    Se repite 4 veces y en la cuarta te quedas en el Fa mas grave
    hasta que entra el Riff2:
     |  D  |  E   |      F#m     | x4
    G|-----|------|--------------|
    D|-----|------|--------------|
    A|5—5-5|------|--------------|
    E|-----|0--0-0|2--2-2--2--2-2|
    
    En el Pre-coro entra con el Riff3:
     |      A     |      F#m     | x3
    G|------------|--------------|
    D|------------|--------------|
    A|------------|---------3-4-5|
    E|55-55-55-542|22-22-22------|
    
    Y remata de la siguiente forma
     |      A     |  F#m | G   A |
    G|------------|------|-------|
    D
  • +
    ¡Colabora con nosotros!
    Envíanos tu versión de esta canción

Letra de Perdí mi ojo de Venado
Perdi mi ojo de venado,
nadie me va a proteger;
vuelo mi cuerpo entre tinieblas.
Dona Macabra viene a ver,
por las noches me platica
de la magia de la soledad,
me congelan las orejas,
creo que me quieren llevar.
Hazme una limpia por favor, amor,
despojame de todo mal carnal,
quema mi ramo por favor, amor,
antes que yo te queme a ti, a ti.

Perdi mi ojo de venado,
soy un ser de obscuridad;
perdi mi vida en un rosario,
entre milagros de la tos;
por las noches me visitan,
me hacen se~as con la piel;
me congelan las orejas,
creo que me quieren llevar.

Hazme una limpia por favor, amor...




[Perdí mi ojo de Venado chords][Perdí mi ojo de Venado cifra]
© LaCuerda.net · aviso legal · privacidad · es · en · pt · contacto