Tablatura para Bajo de Caifanes: Aquí no es así
Conexión · Inscripción
Letras y Acordes
Pantalla Completa
Imprimir
Versión Texto
Añadir Favorito
Otras Versiones

Mostrar Diagramas
Desfile Automático
Formato del Texto


Aquí no es así(BAJ)

Caifanes

calidad:
caif0086
AUTOR: Alfonso Andre, Saul Hernández, A. Marcovich
ALBUM: El Nervio del Volcan (1994)
Enviado por Andy
Verso-
G|--------------------------------------------------|
D|--------------------------------------------------|    
A|-------5-----------5----------5-------------------|   
E|--6-6----6----5-5---5-----3-3---3--33-3---0-3-5---|

“Y vienes desde aya donde no sale el sol, donde no ahi calor...”
G|-----------------------------|
D|-----------------------------|
A|-----------------------------|   x2
E|-1-1-1-1--1----3-3-3-3-3-3---|

Coro
G|------------------------------------------------------------|
D|------------------------------------------------------------| 
A|------------------------------------------------------------|    
E|-7-7-7-7-7--5-5-5-5-5-5-5--4-4-4-4-4-4-4-4--2-2-2-2-2-2-2---|

Intermedio:
G|-------------------------------|---------|
D|--5--3h5--3--------------------|---------|
A|--------------5p3--5-----------|-3--5----|   x3
E|-------------------------------|---------|

Despues de la tercera vez toca esto:
G|----------------|----------------------------|
D|----------------|--10-8-7--------------------| 
A|----------------|-----------10-9-7-10--7-----| 
E|-5-5-5-5----8---|----------------------------|

Otra vez el coro:
G|-----------------------------------------------------------|
D|-----------------------------------------------------------| 
A|-----------------------------------------------------------|    
E|-5-5-5-5-5-5-5--4-4-4-4-4-4-4-4--2-2-2-2-2-2-2--7-7-7-7-7--|

Luego:
G|--------------------------------|
D|--------------------------------|
A|--------------------------------|   Hasta Acabar la cancion
E|-1-1-1-1--1----3-3-3-3-3-3------|
Este fichero es trabajo propio de su transcriptor y representa su interpretación personal de la canción. El material contenido en esta página es
para exclusivo uso privado, por lo que se prohibe su reproducción o retransmisión, así como su uso para fines comerciales.

© LaCuerda.net · Aviso Legal · Privacidad