Tablatura para Bajo de Caifanes: Aquí no es así
Conexión · Inscripción
Letras y Acordes
Pantalla Completa
Imprimir
Versión Texto
Añadir Favorito
Otras Versiones

Mostrar Diagramas
Desfile Automático
Formato del Texto


Aquí no es así(BAJ)

Caifanes

calidad:
caif0087
AUTOR: Alfonso Andre, Saul Hernández, A. Marcovich
ALBUM: El Nervio del Volcan (1994)
Enviado por Paul
este es el bajeo completo.
Intro que llamaremos (Verso 1)que es el principal
(V1)se toca mientras canta hasta...

g----------------------------------------------|
d-----0---------0-------0----------------------|
a-1-1---1-0-0-0---0-----------0----------------|
e-------------------3-3---3-3------------------|
(V2)
'y vienes desde a ya...' hasta
g----------------------------------------------|
d----------------------------------------------|
a----------------------------------------------|
e-1-1-1-3-1--1-1-1-2-3--2-3-3-1-3--3-3-3-3-1---|
(V3)
'pero aqui noes asi...'
g-0-2---0---0----------------------------------|
d-----3---3---3--0-0-0-0-0-0-0-0-0-0-0-0-0-0-0-|
a----------------------------------------------|
e----------------------------------------------|

g---------------------------------|
d---------------------------------|
a-3-3-3-3-3-3-3-3-3-3-3-3-3-3-3-3-|
e---------------------------------|

g---------------------------------|
d---------------------------------|
a-1-1-1-1-1-1-1-1-1-1-1-1-1-1-1-1-|
e---------------------------------|

g--------------------|
d--------------------|
a--------------------|
e-1-1-1-1-1-1-1-1-1--|
(solo)

g-0----0-----------------0---0-------------0---0-------|
d----0---3--0---0--0--3----0---3-0---0-0-3---0---3-0---|
a-------------3--------------------3-----------------3-|
e------------------------------------------------------|

g-------------------5-3-2-0---------|
d---------------------------3-2-0---|
a-1-1-1-1-1-1-1-1-3-----------------|
e-----------------------------------|

g-----------------------------------|
d-----------------------------------|
a-----------------------------------|
e-1-1-1-1-1-1-1-1-1-1-1-1-1-1-1-2---|

g-----------------------------------|
d-----------------------------------|
a-----------------------------------|
e-3-3-3-3-3-3-3-3-3-3-3-3-3-3-3-3---|

g-----------------------------------|
d-----------------------------------|
a-----------------------------------|
e-1-1-1-1-1-1-1-1-1-1-1-1-1-1-1-1---|

g-----------------------------------|
d-----------------------------------|
a-1-1-1-1-1-1-1-1-1-1-1-1-1-1-1-1---|
e-----------------------------------|

para la parte de el final se utiliza el (V 2) hasta
acabarse la cancion

si tienen dudas o comentarios escribanme a 
caifan_4315@yahoo.com
Este fichero es trabajo propio de su transcriptor y representa su interpretación personal de la canción. El material contenido en esta página es
para exclusivo uso privado, por lo que se prohibe su reproducción o retransmisión, así como su uso para fines comerciales.

© LaCuerda.net · Aviso Legal · Privacidad