Acordes de Guitarra » B »Benny Ibarra » Cielo (Tab)

Cielo
Benny Ibarra

Letras, Acordes y Tabs para Guitarra, Bajo y Ukulele

  •                G   Cadd9         D
    Cielo, por tu luz ,   Por esa caricia 
                G         Cadd9  D
    yo seria capaz de rendir mi ser 
                 G   Cadd9              D
    ya no tiene caso, mirar hacia otro lado 
                   Am         C         G
    Todo lo que espero lo encuentro en ti 
    
                G   Cadd9              D   
    Sientete segura   que no te quepa duda 
                   G        Cadd9 D
    cuenta con mi vida y mi devocion 
                G    Cadd9        D
    vivo para amarte  para mi alejarme 
                Am         C    G
    es como quedar sin respiracion 
    
    CORO
                      Em  C           G
    
  •              SOL  DO          RE              SOL 
    Cielo por tu luz ,  por esa caricia yo seria capaz de
       DO      RE              SOL  DO                  RE 
    rendir mi ser, ya no tiene caso,  mirar hacia otro lado
                  DO          RE       SOL  
    Todo lo que espero lo encuentro en ti. 
               SOL  DO                 RE 
    Sientete segura,  que no te quepa duda cuenta con mi
    SOL       DO   RE              SOL  DO            RE 
    vida y mi devocion, vivo para amarte,  para mi alejarme 
               LAm         RE   SOL 
    es como quedar sin respiracion 
    CORO
                     MIm  DO              SOL 
    El cielo en tu mirada,   en cada madrugada 
                MIm       DO    RE                  MIm
    es a donde pierdo mi confusion y cuando estas ausente 
    DO               SOL          MIm     DO   SOL 
      te abrazo a mi mente, cielo para sobrevivir.
              MIm    DO   SOL 
    
  •     G             C               D/Dsus
    E---3------------------------------------------------
     -----------------3----------------------------------
     ---------------------------------0------------------
     ----0--0--0-------0-----0---0--------------3--------
     -----2--2-----------1-1----------------------2------
    e------2-------------------0------2--2/3--2-----1----
                G    C           D
    CIELO POR TU LUZ, POR ESA CARICIA
               G             C       D
    YO SERIA CAPAZ... DE RENDIR, MI SER
                 G   C                   D    
    YA NO TIENE CASO, MIRAR HACIA OTRO LADO
               Em              C          G
    TODO LO K ESPERO... LO ENCUENTRO EN TI
                G   C                D        
    SIENTETE SEGURA, KE NO TE QUEPA DUDA
                  G         C         D
    CUENTA CON MI VIDA Y MI DEBOSION
                 G   C             D  
    
  •   Pie     r DO  MI Con     fu       Sión                   y CuandoEstasAu
    
      .   .   .   .    .   .   .   .    .   .   .   .    .   .   .   .
    1|3---------------|----------------|----------------|----------------|a
    2|----------------|----------------|----------------|----------------|a
    3|----------------|----------------|----------------|----------------|a
    4|----0-0----0---0|---0-----0------|--7-7---7-7-----|----------------|a
    5|---3-3--3-3--3--|1---1--1---3----|-8---8-8---8----|----------------|a
    6|--3----3-3--3-3-|-30--30---3-3-7-|7--7--7--7--7---|----------------|a
      Se    n te           TeA bra zoAMiMe    n te           Mi  Cie lo
    
      .   .   .   .    .   .   .   .    .   .   .   .    .   .   .   .
    1|----------------|----------------|----------------|----------------|a
    2|----------------|----------------|----------------|----------------|a
    3|----------------|----------------|------------2---|0---------------|a
    4|--0-0-----------|----------------|0-----------0---|0---------------|a
    5|3---------------|3---------------|0-----------1---|0---------------|a
    6|------3---------|3---------------|----------------|----------------|u
      Pa        raSo   bre         Vi   vir
    
    
  •     G              Csus9          D
    e|----------3--------------3------------3p2-------0h2-----2-------|
    B|--------3---3----------3---3--------3-----3---------3-----3-----|
    G|------0-------3------0-------3----2---------2---------2-----2---|
    D|----0--------------2------------0-------------0-----------------|
    A|-----------------3----------------------------------------------|
    E|--3-------------------------------------------------------------|
        G              Csus9          D
    e|----------3--------------3------------3p2-------0h2-----2-------|
    B|--------3---3----------3---3--------3-----3---------3-----3-----|
    G|------0-------3------0-------3----2---------2---------2-----2---|
    D|----0--------------2------------0-------------0-----------------|
    A|-----------------3----------------------------------------------|
    E|--3-------------------------------------------------------------|
        G              Csus9          D
    e|----------3--------------3------------3p2-------0h2-----2-------|
    B|--------3---3----------3---3--------3-----3---------3-----3-----|
    G|------0-------3------0-------3----2---------2---------2-----2---|
    D|----0--------------2------------0-------------0-----------------|
    A|-----------------3----------------------------------------------|
    
  • E. CABALLERO
    
    
    El bajo empieza hasta la parte del coro...
    con algo asi
    
    G-------------------------------
    D------------------------------------
    A------3-------------------3-3-5-------------
    E--O-O---3--3/5/3--5-5-0-1---------------
    
    G-------------------------------
    D------------------------------------
    A------3--------------3-3--------------
    E--O-O---3-3-4-5-0-1------3-3-------------
    
    G-------------------------------
    D-------------------------------
    A----------3-3------------------
    E--555-0-0-----3----------------
    
    EN LA PARTE DEL REQUINTO VA ESTO
    
    G-------------------------------
    D-------------------------------
    A------3-----------3--2-2-------
    E--0-0---3-3---0-0--------------POR TODO EL REQUINTO 
    
    DESPUES SE REÍTE LO MISMO
    
    G-------------------------------
    D------------------------------------
    A------3-------------------3-3-5-------------
    E--O-O---3--3/5/3--5-5-0-1---------------
    
    
    
    G-------------------------------
    D------------------------------
  • Esta cancion esta xevere
    ai va mis panas.
    
    
    Intro
    G--|--------------------------------------------------------|
    D--|--------------------------------------------------------|
    A--|--5\----------------3-33--------------01/3--------------|
    E--|---------3-33-----------------3-33----------------------|
    
    Cielo por tu luz...
    G--|--------------------------------------------------------|
    D--|--------------------------------------------------------|
    A--|--------------3-33--------5-55--------------------------|x3
    E--|--3-33-------------------------------3-33---------------|
    
    Todo lo que esperooo lo encuentro en ti....
    G--|--------------------------------------------------------|
    D--|--------------------------------------------------------|
    A--|---------2--3-33----------3h5h3-3h5h3-3h5h3\1-----------|
    E--|---0-00-----------3-33----------------------------------|
    
    El cielo en tu mirada.....
    G--|-----|--------------------------------------------------|
    D--|-----|--------------------------------------
  • Esta rola es muy bonita y quiero dedicarla
    con mucho cariño  a Olga Lilia  Ezquivel C.
    quien ha sido una buena  amiga, compañera
    y maestra de Biologia
    Le deseo siempre lo mejor de este mundo.
    
    VERSO:
    
                    G        C
    CIE-LO POR TU LUZ
    B   A   A   G   G  G
    
                   D
    Y  POR ESA CA-RI-CIA
    B   A   A   G  A   B
    
                   G
    YO SE-RÍA CA-PAZ
      B A  A   G   G
    
               C      D
    DE REN-DIR MI SER
    A     B     C  B  A
    
    SE TOCA LO MISMO DEL VERSO, PERO SE AGREGA ESTO AL FINAL:
    
          C            G
    LO EN-CUEN -TRO EN TÍ
    
    A   B   A    G    G
    
    
    CORO:
    
                         Em      C
    EL CIE- LO -EN TU MI-RA-DA
     G   B  D   D     B  E   E
    
                     G
    EN CA-DA MA-DRU-GA-DA
    E  E   D  D   D  D  B
    
                  Em           C     D
    ES A DON-DE PIER-DO -MI CON-FU-SIÓN
    B  B  A  A    G   G   A   B  C  B A
    
                      Em        C
    Y CUAN-DO ESTAS  AU-SEN-TE
    G   B   D    D    B   E  E
    
                     G
    TE A-BRA-ZO A MI MEN-TE
     E E   D    D  D   D  B
    
               Em
  • +
    ¡Colabora con nosotros!
    Envíanos tu versión de esta canción

Letra de Cielo
Cielo, por tu luz , Por esa caricia
yo seria capaz de rendir mi ser
ya no tiene caso, mirar hacia otro lado
Todo lo que espero lo encuentro en ti
Sientete segura que no te quepa duda
cuenta con mi vida y mi devocion
vivo para amarte para mi alejarme
es como quedar sin respiracion
El cielo en tu mirada cada madrugada
es a donde pierdo mi confusion
y cuando estas ausente
te abrazo a mi mente, cielo para sobrevivir
Mi cielo para poder vivir

El cielo en tu mirada cada madrugada
es a donde pierdo mi confusion
y cuando estas ausente
te abrazo a mi mente mi cielo para sobrevivir
Cielo para poder vivir.




[Cielo chords][Cielo cifra]
© LaCuerda.net · aviso legal · privacidad · es · en · pt · contacto