Tablatura para Guitarra de Benny Ibarra: Cielo
Conexión · Inscripción
Letras y Acordes
Pantalla Completa
Imprimir
Versión Texto
Añadir Favorito
Otras Versiones

Mostrar Diagramas
Desfile Automático
Manipular Acordes
Formato del Texto


Cielo(TAB)

Benny Ibarra

calidad:
biba0042
AUTOR: P. Carráz, Memo Méndez Guiú
ALBUM: Uno
Enviado por Panzón
Trovador y cantante,
tu juglar,
tu devoto admirante y platónico amante...
También en esto puedes convertir a este comodín.
Sólo escógelo así,_.
Ponme nombre y nunca te inquietes...
Sea lo que sea, el Cielo será siempre para ti.


Tablatura, nota por nota, para la CANCIÓN COMPLETA.
Piano y guitarra quedan mezclados, marca el acento con volumen según convenga.
En 'Estribillo' y partes 'simples', puedes combinar con otras estrofas de igual acorde.
Se respeta la métrica del ritmo en letra y notas (4/4 = cuatro '.')
  .   .   .   .    .   .   .   .    .   .   .   .    .   .   .   .
1|3---------------|----------------|----------------|----------------|a
2|----------------|3---------------|----------------|5---------------|a
3|--0-------------|--0-------------|3---------------|4---------------|a
4|----0-2-------0-|----0-2---0-2---|--2---------2---|----------------|a
5|----------3-----|----3-------3---|----3-----3-----|----------------|a
6|------------3---|------3-------3-|------3-2-------|----------------|a
  .   .   .   .    .   .   .   .    .   .   .   .    .   .   .   .
1|3---------------|----------------|----------------|----------------|a
2|------------2---|3---------------|----------------|----------------|a
3|--0-------------|-------02-----22|0---------------|----------------|a
4|----0-2-------0-|----0-2---0-2---|----2-2-----2---|----------------|a
5|----------3-----|----------------|--------3-----3-|------3-3-------|a
6|------3---------|----------------|----------------|3-2-2-----------|a
  .   .   .   .    .   .   .   .    .   .   .   .    .   .   .   .
1|3---------------|----------------|----------------|----------------|a
2|----------------|3---------------|----------------|----------------|a
3|--0-------0-----|--------2-------|0---------------|0---------------|a
4|----0-2---------|----0-2-----0-2-|--2-----------2-|----------------|a
5|------3-----3-3-|3---3-----------|----3-----------|----------------|a
6|3---------3-----|----------0-----|------0-2-------|----------------|a
  .   .   .   .    .   .   .   .    .   .   .   .    .   .   .   .
1|----------------|----------------|----------------|----------------|a
2|0-------2-------|3---------------|----------------|----------------|a
3|----2-----------|-5--------------|----------------|----------------|a
4|--0---------2---|--5-------------|----------------|----------------|a
5|1---1-----3-3---|---5------------|----------------|----------------|a
6|------0-2-----2-|----3-----------|----------------|----------------|a
                                                             CieloPorTu

  .   .   .   .    .   .   .   .    .   .   .   .    .   .   .   .
1|3---------------|----------------|----------------|----------------|a
2|----------------|3---------------|----------------|----------------|a
3|--0-------------|--0-------------|3---------------|0---------------|a
4|----0-2-------0-|----0-2---0-2---|--2---------2-0-|----------------|a
5|----3-----3-----|----3-------3---|----3-----3-----|----------------|a
6|------3-----3---|------3-------3-|------3-2-------|----------------|a
  Luz                      PorEsaCa ri      cia              YoSeriaCa

  .   .   .   .    .   .   .   .    .   .   .   .    .   .   .   .
1|3---------------|----------------|----------------|----------------|a
2|------------2---|3---------------|----------------|----------------|a
3|--0-------------|-------02-----22|0---------------|----------------|a
4|----0-2-------0-|----0-2---0-2---|----2-2-----2---|----------------|a
5|----------3-----|----------------|--------3-----3-|------3-3-------|a
6|------3---------|----------------|----------------|3-2-2-----------|a
  paz       DeRen  dir     Mi       Ser                      YaNoTiene

  .   .   .   .    .   .   .   .    .   .   .   .    .   .   .   .
1|3---------------|----------------|----------------|----------------|a
2|----------------|3---------------|----------------|----------------|a
3|--0-------0-----|--------2-------|3---------------|0---------------|a
4|----0-2---------|----0-2-----0-2-|--2-----------2-|----------------|a
5|------3-----3-3-|3---3-----------|----3-----------|----------------|a
6|3---------3-----|----------0-----|------0-2-------|----------------|a
  Ca      so             MirarHaciaOtroLa      do               TodoLoQuEs



  .   .   .   .    .   .   .   .    .   .   .   .    .   .   .   .
1|----------------|----------------|----------------|----------------|a
2|0---0-----------|0---------------|2---------------|----------------|a
3|2-------0-------|0---------------|0-----------2---|0---------------|a
4|0---------------|2---------------|0-----------0---|0---------------|a
5|1---1-----------|1---------------|3-----------1---|0---------------|a
6|0-----0---------|0---------------|----------------|----------------|a
  pe        roLoEn cue        ntroEnTi                       SiteteSe


  .   .   .   .    .   .   .   .    .   .   .   .    .   .   .   .
1|3---------------|----------------|----------------|----------------|a
2|----------------|3---------------|----------------|5---------------|a
3|--0-------------|--0-------------|3---------------|4---------------|a
4|----0-2-------0-|----0-2---0-2---|--2---------2---|----------------|a
5|----3-----3-----|----3-------3---|----3-----3-----|----------------|a
6|------3-----3---|------3-------3-|------3-2-------|----------------|a
  Gu      ra             QeNoTeQepa Du      da               CuentaConMi


  .   .   .   .    .   .   .   .    .   .   .   .    .   .   .   .
1|3---------------|----------------|----------------|----------------|a
2|------------2---|3---------------|----------------|----------------|a
3|--0-------------|-------02-----22|0---------------|----------------|a
4|----0-2-------0-|----0-2---0-2---|----2-2-----2---|----------------|a
5|----------3-----|----------------|--------3-----3-|------3-3-------|a
6|------3---------|----------------|----------------|3-2-2-----------|s
  Vi        DaY Mi De      vo       sión                     VivoparA

  .   .   .   .    .   .   .   .    .   .   .   .    .   .   .   .
1|3---------------|----------------|----------------|----------------|a
2|----------------|3---------------|----------------|----------------|a
3|--0-------0-----|--------2-------|3---------------|0---------------|a
4|----0-2---------|----0-2-----0-2-|--2-----------2-|----------------|a
5|------3-----3-3-|3---3-----------|----3-----------|----------------|a
6|3---------3-----|----------0-----|------0-2-------|----------------|a
  ma    r te               ParaNiAleja    r me               EsComoQue

  .   .   .   .    .   .   .   .    .   .   .   .    .   .   .   .
1|----------------|----------------|----------------|----------------|a
2|0---0-----------|0---------------|2---------------|----------------|a
3|2-------0-------|0---------------|0-----------2---|0---------------|a
4|0---------------|2---------------|0-----------0---|0---------------|a
5|1---1-----------|1---------------|3-----------1---|0---------------|a
6|0-----0---------|0---------------|----------------|----------------|i
  dar       SinRes  pi          ra   ción       CORO:      ElCieloEnTuMi

  .   .   .   .    .   .   .   .    .   .   .   .    .   .   .   .
1|0---------------|----------------|----------------|3---------------|a
2|------------2---|3---------------|----------------|----------------|a
3|----------------|----------------|--------------0-|----0-------4---|a
4|--0-----------0-|------0-------0-|----------2-0---|--------0-------|a
5|------3---------|----------------|--------------3-|----------------|a
6|----3---3-3-----|3-------3-3-----|3---------------|--------3---3---|a
  ra      da               CadaMadruga                       EsA Donde

  .   .   .   .    .   .   .   .    .   .   .   .    .   .   .   .
1|----------------|----------------|----------------|----------------|a
2|----------------|----------------|----------------|----------------|a
3|2---------------|----------------|----------------|----------------|a
4|--0---------0---|----0-----0-----|----------------|----------------|a
5|----3-----3-----|----------------|----------3---3-|----------------|a
6|3-----3-------3-|3-----3---------|2-------2---3---|5---------------|r
Pie r DO MI Con fu Sión y CuandoEstasAu . . . . . . . . . . . . . . . . 1|3---------------|----------------|----------------|----------------|a 2|----------------|----------------|----------------|----------------|a 3|----------------|----------------|----------------|----------------|a 4|----0-0----0---0|---0-----0------|--7-7---7-7-----|----------------|a 5|---3-3--3-3--3--|1---1--1---3----|-8---8-8---8----|----------------|a 6|--3----3-3--3-3-|-30--30---3-3-7-|7--7--7--7--7---|----------------|a Se n te TeA bra zoAMiMe n te Mi Cie lo . . . . . . . . . . . . . . . . 1|----------------|----------------|----------------|----------------|a 2|----------------|----------------|----------------|----------------|a 3|----------------|----------------|------------2---|0---------------|a 4|--0-0-----------|----------------|0-----------0---|0---------------|a 5|3---------------|3---------------|0-----------1---|0---------------|a 6|------3---------|3---------------|----------------|----------------|u Pa raSo bre Vi vir Estribillo . . . . . . . . . . . . . . . . 1|----------------|----------------|----------------|----------------|a 2|----------------|----------------|----------------|----------------|a 3|----------------|----------------|----------------|----------------|a 4|----------------|----------------|----------------|----------------|a 5|------8-8-------|----------------|------8---------|----------------|a 6|7-5-5-----------|----------------|7-5-5---5------7|5---------------|a . . . . . . . . . . . . . . . . 1|----------------|----------------|----------------|----------------|a 2|----------------|----------------|----------------|----------------|a 3|----------------|----------------|----------------|----------------|a 4|----------------|----------------|----------------|----------------|a 5|------8-8-------|--------8-------|----7---5-------|----------------|a 6|7-5-5-----------|--5-7-----------|----------------|--------------10|a . . . . . . . . . . . . . . . . 1|----------------|----------------|----------------|----------------|a 2|--------------10|----101010------|----10--9-------|----------------|a 3|----------109---|1010------7---7-|----------------|----------------|a 4|------7-7-------|------------9---|----------------|----------------|a 5|8-7-8-----------|----------------|----------------|----------------|a 6|----------------|----------------|----------------|----------------|a . . . . . . . . . . . . . . . . 1|----------------|----------------|----------------|----------------|a 2|----------------|----------------|----------------|----------------|a 3|----------------|----------------|----------------|----------------|a 4|----------------|----9-----------|---79-----------|----------------|a 5|------8---------|108-------------|------8-108-8---|----------------|a 6|7-5-5---5-------|----------------|----------------|----------------|l REPITE CORO...
Este fichero es trabajo propio de su transcriptor y representa su interpretación personal de la canción. El material contenido en esta página es
para exclusivo uso privado, por lo que se prohibe su reproducción o retransmisión, así como su uso para fines comerciales.

© LaCuerda.net · Aviso Legal · Privacidad