Acordes de Guitarra » B »Benny Ibarra » Mía (Tab)

Mía
Benny Ibarra

Letras, Acordes y Tabs para Guitarra, Bajo y Ukulele

  • C,Em,Am,G,F,G
    
                      C                  Em   
    Si probste otros besos,no tedejo por eso
                      Am   G               F               G   
    yo no tengo el derecho,  ni pienso prohibirtelo para que ?  
                        C                    Em 
    Si buscaste otros brazos, si te fue necesario 
                         Am   G                F              G
    no tendrás que explicarlo,  nunca voy a pedirtelo porque se
    
    CORO:
    
             F+7               G         
    Cuando llega la hora de hacerte el amor, 
          Am          G           F
    no detecto otra huella en tu corazón, 
                                G                   C
    porque siento mi espacio intacto en tu respiración
             F+7                  G
    
  •                 C
                                           
    A-3 - - - -p3 m3-!3-¡3--3--3--------  
    D-- - - - - 2 -2--2--2--2-----------  
    G--0 - - - -0 -0--0--0--0---0-------   
    B---1 -1 - -1 -1--1--1--1-----1---1-  
    em - -0 - --0 -0--0--0--0-------0---  
    
           Em                         Am
    
    Em - - - - - - - - - - - - /- - - - - - -  
    A-p3 m3-!3-¡3-!3-0 - - - - /-p0-m0 -0 - - 
    D--2 -2--2--2- 2- - - - - -/--2--2- 2 - --  
    G--0 -0--0--0- 0- -0 - - - /--2--2- 2 -2 - 
    B--0 -0--0--0- 0- - -0 --0 /--1--1- 1 -1--  
    e--0 -0--0--0- 0- - ---0---/--0--0- 0 -0 -  
    
    
    
          G              F             G
    
  • e--------0--0-0------------0-1-0-----------0-0------------0-1-0-----
    b--------3--1-1------------3-3-3-----------0-0------------0-0-0-----
    g--0-2-5----0-0------------0-0-0----0-2-5--0-0------------0-0-0-----
    D----------------(apagan)-----------------------(apagan)------------
    A--3-3-3-3--3-3------------3-3-3----3-3-3---------------------------
    E------------------------------------------0-0------------0-0-0-----
                
    e--------0--0-0-----------0----0-0-0--0--------------------------
    b--------3--1-1-----------1--3-0-0-0--3------1-1s---3------------
    g--0-2-5----2-2-----------2--4-4-4-4----2----2-2s---4------------
    D----------------(apagan)----5------------3--3-3s---5(apagan)----
    A-----------0-0-----------0--------------------------------------
    E--0-0-0-0-------------------3-3-3-3--1------1-1s---3------------
    
                  
    Cadd9                                     Em   
    e------------------0-0-1-0---------0------0-(0)-1----------------------
    b------------------3-3-3-3-------3--------0-(0)-0-------------------
    g------------------0-0-0-0-----0------0-----------------------------
    D-----------------------------------------------(apagan)--------
    
  • E. CABALLERO
    
    LA CANCION EMPIEZA CON EL PIANO Y EL BAJO ASI...
    
    
    G--------------2------------------------
    D-------2-2-2-----5--33-5---------------
    A-3-3-3---------------------------------
    E---------------------------------------
    
    LA CANCION VA ASI...
    
    G---------2----------------------------
    D-----2-2----5--3-35-------------------
    A-3-3----------------------------------
    E-------------------------------------- 2 VECES
    
    G-------------------------------------
    D--5-5-5-5----------------------------
    A-------------------------------------
    E-------------------------------------
    
     CUANDO LLEGA LA HORA DE HACERTE EL AMOR
    G-------------------------------------
    D-3--3-4-5--5-6--7-5-3----------------
    A-------------------------------------
    E-------------------------------------
    
    
    G------------5------------------------
    D-3333--5--5--------------------------
    A-------------------------------------
    E-------------------------------------
    
    G-------------------------------
  • PUNTEADO
    [        3 Octava           ][       4 Octava           ]
                                 
    ________________________________C#__D#______F#__G#__A#___
    |  | | | |  |  | | | | | |  |  | | | |  |  | | | | | |  |
    |  | | | |  |  | | | | | |  |  | | | |  |  | | | | | |  |
    |  |_| |_|  |  |_| |_| |_|  |  |_| |_|  |  |_| |_| |_|  |
    |   |   |   |   |   |   |   |   |   |   |   |   |   |   |
    |___|___|___|___|___|___|___|___|___|___|___|___|___|___|
    
      C   D   E   F   G   A   B   C   D   E   F   G   A   B 
    
    
    Intro
    
     2  2  3  3    3  3     3  3   3  3  3  ---Octava
    Sol-La-Do-Re- Sol+Mi - Sol+Mi -Mi-Fa-Mi ---Punteado
                   2  2     2  2     2  2   ---Octava
                  Do+Sol   Do+Sol   Do+Sol  ---Punteado
    
     2  2  3  3    3  3     3  3   3  3  3  
    Sol-La-Do-Re- Sol+Mi - Sol+Mi -Mi-Fa-Mi 
                   2 2     2 2      2  2      
                  Mi+Si   Mi+Si     Mi+Si    
    
     2  2  3  3    3  3     3  3   3  3  3  
    Sol-La-Do-Re- Sol+Mi - Sol+Mi -Mi-Fa-Mi 
          
  • +
    ¡Colabora con nosotros!
    Envíanos tu versión de esta canción

Letra de Mía
Si probste otros besos,no tedejo por eso
yo no tengo el derecho, ni pienso prohibirtelo para que ?
Si buscaste otros brazos, si te fue necesario
no tendrás que explicarlo, nunca voy a pedirtelo porque se
Cuando llega la hora de hacerte el amor,
no detecto otra huella en tu corazón,
porque siento mi espacio intacto en tu respiración
Porque llego a tocar cada obscuro rincón
porque siento tu alma pedirmelo,
porque se que apesar de lo que hagas amor, eres mia, mia, mia
Si te provocaron otras manos tivias,
que ganaría, con reprochartelo para que ?
Si olvidaste mi cuerpo, sin querer evitarlo,
yo no voy a juzgarlo oh no, es algo muy tuyo amor yo no se...
yo que puedo decirte.




[Mía chords][Mía cifra]
© LaCuerda.net · aviso legal · privacidad · es · en · pt · contacto