Notas para Piano de Benny Ibarra: Cielo
Conexión · Inscripción
Letras y Acordes
Pantalla Completa
Imprimir
Versión Texto
Añadir Favorito
Otras Versiones

Mostrar Diagramas
Desfile Automático
Formato del Texto


Cielo(TEC)

Benny Ibarra

calidad:
biba0045
AUTOR: P. Carráz, Memo Méndez Guiú
ALBUM: Uno
Enviado por Emmanuel
Esta rola es muy bonita y quiero dedicarla
con mucho cariño  a Olga Lilia  Ezquivel C.
quien ha sido una buena  amiga, compañera
y maestra de Biologia
Le deseo siempre lo mejor de este mundo.

VERSO:

                G        C
CIE-LO POR TU LUZ
B   A   A   G   G  G

               D
Y  POR ESA CA-RI-CIA
B   A   A   G  A   B

               G
YO SE-RÍA CA-PAZ
  B A  A   G   G

           C      D
DE REN-DIR MI SER
A     B     C  B  A

SE TOCA LO MISMO DEL VERSO, PERO SE AGREGA ESTO AL FINAL:

      C            G
LO EN-CUEN -TRO EN TÍ

A   B   A    G    G


CORO:

                     Em      C
EL CIE- LO -EN TU MI-RA-DA
 G   B  D   D     B  E   E

                 G
EN CA-DA MA-DRU-GA-DA
E  E   D  D   D  D  B

              Em           C     D
ES A DON-DE PIER-DO -MI CON-FU-SIÓN
B  B  A  A    G   G   A   B  C  B A

                  Em        C
Y CUAN-DO ESTAS  AU-SEN-TE
G   B   D    D    B   E  E

                 G
TE A-BRA-ZO A MI MEN-TE
 E E   D    D  D   D  B

           Em      C         G
MI CIE-LO PA-RA SO-BRE-VI -VIR
B    B  A  G A   B   A  G    G









Este es el solo de guitarra !Yeah!


        G           C             D

 E------------------I-----------------II
 A------------------I-----------------II
 D------------------I-----------------II
 G------------------I-----------------II
 B------------------I-----------------II
 e--7-7-5-5-3-3--3--I--7-7-5-5-3-5-7--II



           G           C  D

I---------------I--- ---------I
I---------------I-------------I
I---------------I-------------I
I---------------I-------------I
I---------------I-------------I
I--7-7-5-5-3-3--I--5-7-8-7-5--I





          G           C            D

 E-------------------------------------------I
 A-------------------------------------------I
 D-----------------5--------5-5---------5-4--I
 G--------7-7-5-4----4-5-4-------2-4-2-------I
 B--8-7-8------------------------------------I
 e-------------------------------------------I

         G
I-----------------I
I-----------------I
I-----------------I
I-----------------I
I-----------------I
I--7-7-5-5-3-3-3--I



          C        G

 E--------------------I------------------I
 A--------------------I------------------I
 D--------------------I------------------I
 G--------------------I------------------I
 D---3h5---5----------I--3-----1------0--I
 e-------3--3-3h5-33--I----3------3------I




Todo lo demás de la canción  es lo mismo.








ACORDES DE GUITARRA



E--3-I---I---I---I
A--2-I-3-I---I-2-I
D----I---I---I-2-I
G----I-2-I-2-I---I
B----I-1-I-3-I---I
e--3-I---I-2-I---I



ACORDES PARA PIANO


G:  D-G-A
C:  C-E-G
D:  D-F#-A
EM: E-G-B



NOTAS PARA BAJO

E--3--I---I---I---I
A-----I-3-I-5-I---I
D-----I---I---I-2-I
G-----I---I---I---I


En cuanto al arreglo del bajo, en el coro
 cuando se da el SOL(G)se hace un ligero slide hacia LA(A)
 Y se regresa nuevamente.
si tienen duda escuchen la canción

"Disfrutenla"
Este fichero es trabajo propio de su transcriptor y representa su interpretación personal de la canción. El material contenido en esta página es
para exclusivo uso privado, por lo que se prohibe su reproducción o retransmisión, así como su uso para fines comerciales.

© LaCuerda.net · Aviso Legal · Privacidad