Acordes de Guitarra » B »Benny Ibarra » Sin Tí (Tab)

Sin Tí
Benny Ibarra

Letras, Acordes y Tabs para Guitarra, Bajo y Ukulele

  •         RE - FA#m - MIm - LA7
    
                 RE
      Como te extraño
                 FA#m
      Como te quiero
                MIm
      A veces siento
                 LA7
      Que ya te perdi...
    
                 RE
      Cuando te busco
                 FA#m
      Ya no te encuentro
                 MIm
      Estas en tu mundo
                 LA7   
      Tan lejos de mi
    
    
  •   LA   Remaj9/Fa#  RE     MIm7     SOL     FA#m
    e-0---0------------2------0-------3-------2------
    B-2---2------------3------3-------0-------2------
    G-2---2------------2------0-------0-------2------
    D-2---0------------0------2-------0-------4------
    A-0---x------------0------2-------2-------4------
    E-x---2------------0------0-------3-------2------
    
    Para sincronizar estas notas a como lo hace el piano, pueden emplear
    lo siguiente:
    
    En Re acompañarlo con un Resus4
    
    e---3---
    B---3---
    G---2---
    D---0---
    A---x---
    E---x---
    
    
  •  Para todos los fans de benny ahí les va el solo de este rolon...
    
    
     e |--5/7---5-----5-------------|----------------|-------5----------|
     b |-----------7-------5---5/7--|----------------|-----5---5--------|
     g |----------------------------|----------------|--7---------7-----|
     D |----------------------------|--7*9----7---7--|---------------7--|
     A |----------------------------|-----------9----|------------------|
     E |----------------------------|----------------|------------------|
    
    
     e |------5---|------------------|------------|---5-----5-----5------|
     b |---5------|------------------|-------5----|-----5-----5-----5---5|
     g |-7--------|------7--7/9---7--|-----7---7--|----------------------|
     D |----------|---7--------------|--7---------|-7-----7-----7-----7--|
     A |----------|-5----------------|------------|----------------------|
     E |----------|------------------|------------|----------------------|
    
       Espero que disfruten este solo, y puedan tacar comp
  •    D                F#m             G
    1--2--3-2-----2-2-------------------------------
    2--3--3-3-----3-3----2--2-2---2-2---0-1-0--0-0--
    3--2--2-2-----2-2----2--3-2---2-2---0-0-0--0-0--
    4--0-----------------4--4-4---4-4---0-0-0--0-0--
    5-----------------------------------------------
    6--------------------2--------------3-----------
    
    
      A                AQUI SE REPITE TODA LA ESTRUCTURA
    1-------------     DESDE D UNA VEZ MAS 
    2-2-3-2--2----
    3-2-2-2--2----
    4-2-2-2--2----
    5-0-----------
    6-------------
    
    AQUI LES VA LA APARTE DEL SOLO PARA GUITARRA
    
    1---5/7-5---5------------------------------
    
  • E. CABALLERO...
    
    EMPIEZA CON...
    
    G---------------------------------------------------
    D---------------------------------------------------
    A----------------9-9----9-9-9--7-7---7-7------------
    E--10-10-5-10-10-----10------------7------5-5--5-5--
    
    SE VA ASI HASTA 
    
    ' NO PUEDE SER '
    
    G------------------------2-2-2-2--------------------
    D----------------2-2-2-2----------------------------
    A--------2-2-2-2------------------------------------
    E-3-3-3-3-------------------------------------------
    
    ' NO SE SI ES MI CULPA '
    
    G-------------------------------------------------
    D------------------2-2----------------------------
    A--------3/2-2-2-2--------------------------------
    E-3-3-3-3--------------3-3--5-5-5-5--10-----------
    
    SE REPITE LO DEL PRINCIPIO
    
    
    Y DESPUES SE REPITE TODO..............................
    ......................................................
    ......................................................
  • +
    ¡Colabora con nosotros!
    Envíanos tu versión de esta canción

Letra de Sin Tí
Como te extraño
Como te quiero
A veces siento
Que ya te perdi...
Cuando te busco
Ya no te encuentro
Estas en tu mundo
Tan lejos de mi
No puede ser
Ya no lo aguanto
Te necesito
Y no estas aqui
No se si es mi culpa
O nuestro destino
Pero me muero oooh
Me muero oooh
Me muero oooh
Sin ti..sin ti...sin ti...
No se que ha pasado
Pero cuando te miro
Ya no adivino
Lo que piensas de mi

Pasan los dias
Y sigo sin verte
Ya no me contestas
Te escondes de mi
No se que nos pasa
Yo se que me quieres
Pero no me perdonas
Que te menti
Pero no me abandones oooh no
Sabes que te amo
Y que me muero oooh
me muero oooh
me muero
sin ti...
sin ti...
sin ti...
Estos son los acordes, cualquier corrección háganmela saber.




[Sin Tí chords][Sin Tí cifra]
© LaCuerda.net · aviso legal · privacidad · es · en · pt · contacto