Tablatura para Bajo de Benny Ibarra: Cielo
Conexión · Inscripción
Letras y Acordes
Pantalla Completa
Imprimir
Versión Texto
Añadir Favorito
Otras Versiones

Mostrar Diagramas
Desfile Automático
Formato del Texto


Cielo(BAJ)

Benny Ibarra

calidad:
biba0048
AUTOR: P. Carráz, Memo Méndez Guiú
ALBUM: Uno
Enviado por Eduardo
Esta cancion esta xevere
ai va mis panas.


Intro
G--|--------------------------------------------------------|
D--|--------------------------------------------------------|
A--|--5\----------------3-33--------------01/3--------------|
E--|---------3-33-----------------3-33----------------------|

Cielo por tu luz...
G--|--------------------------------------------------------|
D--|--------------------------------------------------------|
A--|--------------3-33--------5-55--------------------------|x3
E--|--3-33-------------------------------3-33---------------|

Todo lo que esperooo lo encuentro en ti....
G--|--------------------------------------------------------|
D--|--------------------------------------------------------|
A--|---------2--3-33----------3h5h3-3h5h3-3h5h3\1-----------|
E--|---0-00-----------3-33----------------------------------|

El cielo en tu mirada.....
G--|-----|--------------------------------------------------|
D--|-----|--------------------------------------------------|
A--|-----|------3-33-------------------3-33--5-55--5-552----|
E--|-3-2-|-0-00------3-33--3-332--0-00----------------------|

G--|--------------------------------------------------------|
D--|--------------------------------------------------------|
A--|-------3-33----------------------3-33---------/3\-------|
E--|--0-00-------3-33---3-332---0-00-------3-33--3----------|

Sientete segura....
G--|--------------------------------------------------------|
D--|--------------------------------------------------------|
A--|--------------3-33--------5-55--------------------------|x3
E--|--3-33-------------------------------3-33---------------|

Es como kedar sin respiracion...
G--|--------------------------------------------------------|
D--|--------------------------------------------------------|
A--|---------2--3-33----------3h5h3-3h5h3-3h5h3\1-----------|
E--|---0-00-----------3-33----------------------------------|

El cielo en tu mirada.....
G--|--------------------------------------------------------|
D--|---------------------------------------------------5-5--|
A--|------------3-33-------------------3-33--5-55-5h7h5-5-5-|
E--|-3-2---0-00------3-33--3-332--0-00----------------------|

G--|--------------------------------------------------------|
D--|--------------------------------------------------------|
A--|-5----------3-33----------------------3-33--------------|
E--|---2---0-00-------3-33---3-332---0-00-------3-33---3----|

G--|--------------------------------------------------------|
D--|--------------------------------------------------------|
A--|-----------3-33---------5-5-5-5-------------------------|
E--|-3-2---0-00------3-33--3-3-3-3--------------------------|

Solo

G--|--------------------------------------------------------|
D--|--------------------------------------------------------|
A--|--------------3-33--------5-55-------5-55---------------|x2
E--|--3-33--------------------------------------------------|

G--|--------------------------------------------------------|
D--|--------------------------------------------------------|
A--|--------------3-33--------5-55-------5-55---------------|
E--|--3-33--------------------------------------------------|

G--|--------------------------------------------------------|
D--|--------------------------------------------------------|
A--|--------2--3-33----555555555555-------------------------|
E--|--3-33--------------------------------------------------|

cielo en tu mirada.....
G--|--------------------------------------------------------|
D--|---------------------------------------------------5-5--|
A--|------------3-33-------------------3-33--5-55-5h7h5-5-5-|
E--|-3-2---0-00------3-33--3-332--0-00----------------------|

G--|--------------------------------------------------------|
D--|--------------------------------------------------------|
A--|-5----------3-3-3-2----------------------3-33-----------|
E--|---2---0-00---------3-33---3-332---0-00-------3-33--3---|

G--|--------------------------------------------------------|
D--|--------------------------------------------------------|
A--|-----------3-33---------2-3-4-5-------------------------|
E--|-3-2---0-00------3-33--3-3-3-3--------------------------|

Cielo para poder.......vivir...
G--|--------------------------------------------------------|
D--|--------------------------------------------------------|
A--|------------------3(3)----------------------------------|
E--|--3-2---0(0)-----------------3(3)-----------------------|


Estas notas estan al 95% correctas.
viva el rock!! \n/
Este fichero es trabajo propio de su transcriptor y representa su interpretación personal de la canción. El material contenido en esta página es
para exclusivo uso privado, por lo que se prohibe su reproducción o retransmisión, así como su uso para fines comerciales.

© LaCuerda.net · Aviso Legal · Privacidad