Tablatura para Bajo de Benny Ibarra: Cielo
Conexión · Inscripción
Letras y Acordes
Pantalla Completa
Imprimir
Versión Texto
Añadir Favorito
Otras Versiones

Mostrar Diagramas
Desfile Automático
Formato del Texto


Cielo(BAJ)

Benny Ibarra

calidad:
biba0043
AUTOR: P. Carráz, Memo Méndez Guiú
ALBUM: Uno
Enviado por eduardo
E. CABALLERO


El bajo empieza hasta la parte del coro...
con algo asi

G-------------------------------
D------------------------------------
A------3-------------------3-3-5-------------
E--O-O---3--3/5/3--5-5-0-1---------------

G-------------------------------
D------------------------------------
A------3--------------3-3--------------
E--O-O---3-3-4-5-0-1------3-3-------------

G-------------------------------
D-------------------------------
A----------3-3------------------
E--555-0-0-----3----------------

EN LA PARTE DEL REQUINTO VA ESTO

G-------------------------------
D-------------------------------
A------3-----------3--2-2-------
E--0-0---3-3---0-0--------------POR TODO EL REQUINTO 

DESPUES SE REÍTE LO MISMO

G-------------------------------
D------------------------------------
A------3-------------------3-3-5-------------
E--O-O---3--3/5/3--5-5-0-1---------------



G-------------------------------
D------------------------------------
A------3--------------3-3--------------
E--O-O---3-3-4-5-0-1------3-3-------------

G-------------------------------
D-------------------------------
A----------3-3------------------
E--555-0-0-----3----------------



JHGKBG..............------------.,,,
Este fichero es trabajo propio de su transcriptor y representa su interpretación personal de la canción. El material contenido en esta página es
para exclusivo uso privado, por lo que se prohibe su reproducción o retransmisión, así como su uso para fines comerciales.

© LaCuerda.net · Aviso Legal · Privacidad