Acordes de Guitarra » A »Attaque 77 » Numancia (Tab)

Numancia
Attaque 77

Letras, Acordes y Tabs para Guitarra, Bajo y Ukulele

  • e----------------------------------------------------  
    B----------------------------------------------------  
    G----------------------0-----------------------------
    D----------------0------------------------0----------  
    A-2-2--------2-4---4-2----------------2-4---4-2--5---  
    E-0-0--0-3-4---------------0-0--0-3-4------------3---  
    
    INTRO 2
    e-----------------------------------------------------
    B-----------------------------------------------------
    G---------------4-4-4--5-5-5--4-4-4--5-5-5--4-2-------
    D------------------------------------------------5-2--
    A-2-2-2--2-7-5----------------------------------------
    E-0-0-0--0-5-3----------------------------------------
    
    RIFF INTRO 1
      E5                      
    e--------------------------
    B--------------------------
    G----------------------0---
    
  • +
    ¡Colabora con nosotros!
    Envíanos tu versión de esta canción

Letra de Numancia
RIFF INTRO 1
RIFF INTRO 2
RIFF
Este solo es el del disco en vivo. En la versión de estudio es mas largo.
Nada de los que me dijiste vos,
nada de lo que dije yo
RIFF
nada somos sin la suerte
No hay estrellas para ser mejor,
no hay una sola visión
RIFF
cada persona desde su lugar tiene razón.
Andá a saber si vos me mentís,
andá a saber si te miento yo... lo siento
Hilaba frases sin ninguna noción
iba perdiendo 3 a 0 al metegol
al metegol...
Ganar el tiempo como un ganador,
perder el tiempo en perdedor
RIFF
ganabas mientras yo perdía oyéndote a vos.
Basta de esto no quiero escuchar,
no entiendo a gente como vos
RIFF
siempre prejuicios y machismo siempre ambición
Ahora te dije lo que sentí,
ahora me siento mucho mejor... por eso
Cuando me encuentro en una buena emoción
le pido a dios se apiade y me llevé ahí, en lo mejor.
(RIFF INTRO 1) INTRO 2
A ver si creés que yo te creí...
S.T.
Suena el teléfono en la habitación y en el contestador
E5 (Tocar y soltar) RIFF
habla Natassja Kinski: Cómo estás?
Terminemos el juego de una vez tengo cosas que hacer
RIFF
cambia la suerte para mi, ya ves, voy a atender.
Ahora me toca ganar a mi
ahora te toca perder a vos
Por eso, cuando me encuentro en una buena emoción
le pido a dios se apiade y me llevé ahí, en lo mejor.
(RIFF INTRO 1) RIFF
A lo mejor llegamos al fin.
Referencias:
/ = Deslizar hasta la cuerda indicada (Slide)
Eso es todo, para comentarios, pedidos, puteadas, etc.
mandenmen un mail a neotokio3@yahoo.com




[Numancia chords][Numancia cifra]
© LaCuerda.net · aviso legal · privacidad · es · en · pt · contacto
DINAMICO