Acordes de Guitarra » V »Viejas Locas » Ruta 66 (Tab)

Ruta 66
Viejas Locas

Letras, Acordes y Tabs para Guitarra, Bajo y Ukulele

  • A5               D5            A5
    Well if you ever plan to motor west
                D5                                 A5
    Just take my way that's the highway that's the best
    E5             D5       A5
    Get your kicks on Route 66
    
    
    A5                    D5      A5
    Well it winds from Chicago to L.A.
              D5                 A5
    More than 2000 miles all the way
    E5             D5       A5
    Get your kicks on Route 66
    
    
    A5                       A5
    Well goes from St. Louie down to Missouri
    A5
    Oklahoma city looks oh so pretty
    
  • --------------------------
    Hola a todos, acá está el tab completo de este tema...
    Una aclaración
    En los estribillos son acordes de quinta con la octava agregada...
    i el solo seguramente tiene algun error pero suenaa si le ponen onda ..
    
    bueno ahi va.
    ====================================================================
    
    
    1ra viola
    
          Riff 1                   Riff 2    Riff 3
    E|------------------|     E|------------------------|
    B|----7-5-----7-5---|     B|--12-10-----14-12-------|
    G|----7-5-7---7-5-7-|     G|--12-10-----14-12-------|
    D|--------7-------7-|     D|-------12--------14-----|
    A|------------------|     A|------------------------|
    E|------------------|     E|------------------------|
    
    
  •   Riff sobre A5    Riff sobre D5    Riff sobre E5
    e|---------------|----------------|----------------
    B|----7-5--------|-----8-8p7------|----10-10p9-----
    G|----7-5--------|-----7-7--------|----9---9-------
    D|---------7-----|----------------|----------------
    A|---------------|----------------|----------------
    E|---------------|----------------|----------------
    
    
             A5       D5           A5
    Well if you ever plan to motor west
    
              D5                 D5                 A5
    Just take my way that's the highway that's the best
    
             E5        D5   A5
    Get your kicks on Route 66
    
    
    Well it winds from Chicago to L.A.
    
  • Les dejo la tablatura de ruta 66
    
    
    INTRO
    
    
    1er Frase
    
    e-----------------------------------------------------------
    B-------7----5---------7----5-------------------------------
    G-------7----5----7----7----5----7--------------------------
    D-----------------7--------------7----5----6----7-----------
    A-----------------------------------------------------------
    E-----------------------------------------------------------
    
    
    e-----------------------------------------------------------
    B-------7----5---------7----5-------------------------------
    G-------7----5----7----7----5----7--------------------------
    D-----------------7--------------7----5----6----7-----------
    A-----------------------------------------------------------
    E-----------------------------------------------------------
    
    2da Frase
    
    
    e-----------------------------------------------------------
    B----12----10-----------------------------------------------
    G----12----10----12-----------------------------------------
    D---------------
  • +
    ¡Colabora con nosotros!
    Envíanos tu versión de esta canción

Letra de Ruta 66
Well if you ever plan to motor west
Just take my way that's the highway that's the best
Get your kicks on Route 66
Well it winds from Chicago to L.A.
More than 2000 miles all the way
Get your kicks on Route 66
Well goes from St. Louie down to Missouri
Oklahoma city looks oh so pretty
You'll see Amarillo and Gallup, New Mexico
Flagstaff, Arizona don't forget Winona
Kingman, Barstow, San Bernadino
Would you get hip to this kindly tip
And go take that California trip
Get your kicks on Route 66
Well goes from St. Louie down to Missouri
Oklahoma city looks oh so pretty
You'll see Amarillo and Gallup, New Mexico
Flagstaff, Arizona don't forget Winona
Kingman, Barstow, San Bernadino
Would you get hip to this kindly tip
And go take that California trip
Get your kicks on Route 66
Aguante viejas locas y VIEJOS TRAPOS RNR!!!!!!!!




[Ruta 66 chords][Ruta 66 cifra]
© LaCuerda.net · aviso legal · privacidad · es · en · pt · contacto