Acordes de Guitarra » V »Viejas Locas » Me Gustas Mucho (Tab)

Me Gustas Mucho
Viejas Locas

Letras, Acordes y Tabs para Guitarra, Bajo y Ukulele

  • Intro: MI            Riff
    E-------------------------------
    B-------------------------------
    G-------------------------------
    D-2---2--2---2--2---------------
    A-2---2--2---2--2----0-2-0------
    E-0---0--0---0--0-----------3-0-
    
    
    
    E---------------------
    B-3h5-----------------
    G-------2h4-2h4-2h4---
    D---------------------
    A---------------------
    E---------------------
    
    
    
    
    
  • e|---------------------------
    B|---------------------------
    G|---------------------2-----
    D|-----------------------0---
    A|-2--2-4-2--2-2--2h4--------
    E|-0--0-0-0--0-0-------------
    
    
    Intro (sobre riff) (empieza en el minuto 0:08)
    
    e|-------------------------------------------------------------------------
    B|---------3h5-------------------------------------------------------------
    G|--------------2h4-2h4-2h4------2-----------------------------------------
    D|-s2-2v---------------------------0--0h2-2-2-2--0h2-2-2-2-0h2-2-0---------
    A|---------------------------2h4-----------------------------------2-0-----
    E|---------------------------------------------------------------------3b-0
    
    
    Estrofa
    
    
  • e|----------------------|x4  e|--------------------------|x8
    B|----------------------|    B|--------------------------|
    G|------------------2p0-|    G|--------------------------|
    D|----------------------|    D|--------------------------|
    A|--2-2-4--2-2--2-4-----|    A|--2-2-4--2-2--2-4---------|
    E|--0-0-0--0-0--0-------|    E|--0-0-0--0-0--0-0---------|
    
      Repite..       riff             riff 2
    e|----------------------|x4  e|---------------------------|
    B|----------------------|    B|---------------------------|
    G|------------------2p0-|    G|---------------------------|
    D|----------------------|    D|---------------------------|
    A|--2-2-4--2-2--2-4-----|    A|---------------------------|
    E|--0-0-0--0-0--0-------|    E|--0-0-4-4-5-5-6-6-7---5-6-7|
    
    
    Punteo de la intro:
    
    e|-------------------------------------------|
    B|-------------------------------------------|
    
  • Armonica en A (la)
    
    intro:
          9 9b 9 9b
     4(4)b[(4)(5)][(3)(4)]
    (34)(34)(34)(4)44 6
    
    q me gustas mucho
    (2)b(2)b(2)b(1)(2)b(2)b(2)b(2)b(3)
    me gustas mucho
    (5)-(5)-
    me gustas mucho
    (2)b(2)b(2)b(1)(2)b(2)b(2)b(2)b(1)
    me gustas mucho
    (5)-(5)-
    
    2ª solo:
         9 9b 9 9b
     4 (4)b[(4)(5)][(3)(4)][(2)(3)][(3)(4)]
    (34)(34)(34)
    
    después repite
    (2)b(2)b(2)b(1)...
    
    
    se lo dedico a maxy a fede y a todas las trolas del barrio.
  • +
    ¡Colabora con nosotros!
    Envíanos tu versión de esta canción

Letra de Me Gustas Mucho
Nos conocimos bailando en un bar
Tus piernas volaban las sabia llevar
A mi me gustaban como las movias
Y juntos nos fuimos a pernoctar.
es que me gustas mucho
me gustas mucho
me gustas mucho
me gustas mucho.
me gusta como te vestis y como andas
me gusta tu pelo, tu cuerpo
me gustaria poderte bañar
tambien secarte y colcerte a enjuagar.
porque me gustas mucho
me gustas mucho,nena
me gustas mucho
sera que me gustas tanto debe ser que
no puedo disimular
de veras, eaaa
Sigue Igual Que Antes.
Escuchar La Cancion Y Sale Facil.




[Me Gustas Mucho chords][Me Gustas Mucho cifra]
© LaCuerda.net · aviso legal · privacidad · es · en · pt · contacto