Acordes de Guitarra » V »Viejas Locas » Todo Sigue Igual (Tab)

Todo Sigue Igual
Viejas Locas

Letras, Acordes y Tabs para Guitarra, Bajo y Ukulele

  •              Bb
    Todo sigue igual
    todo sigue igual de bien,
                 Gm           F   D#
    siguen los amigos que quiero tener.
                   Bb
    No me puedo quejar.
                 Gm           F   D#
    Algunas chicas me van a entender,
                 Gm           F    D#
    en esos momentos que no aguanto más
                     Gm F
    me puedo conformar.
    
    Hago lo que quiero
    hacer, y no me sale mal
    algunas cosas me tocó perder,
    y otras pude ganar.
    Tengo la banda que quiero tener,
    y más de una razón para pensar
    
  • intro: Asus4 A
    
                 A
    Todo sigue igual
    todo sigue igual de bien,
                 F#m           E   Dmej4
    siguen los amigos que quiero tener.
                   A
    No me puedo quejar.
                 F#m           E   Dmej4
    Algunas chicas me van a entender,
                 F#m           E    Dmej4
    en esos momentos que no aguanto más
                     F#m E
    me puedo conformar.
    
    Hago lo que quiero
    hacer, y no me sale mal
    algunas cosas me tocó perder,
    y otras pude ganar.
    
  •      Bb     Bbsus4
    1|--x-x-x---x-x-x--x-x-x-x-x----x-x-x--x-x-x-x---|
    2|--3-3-3---4-4-4--3-4-3-3-3----4-4-4--3-4-3-3---|
    3|--3-3-3---3-3-3--3-3-3-3-3----3-3-3--3-3-3-3---|
    4|--3-3-3---3-3-3--3-3-3-3-3----3-3-3--3-3-3-3---|
    5|--1-1-1---1-1-1--1-1-1-1-1----1-1-1--1-1-1-1---|
    6|--x-x-x---x-x-x--x-x-x-x-x----x-x-x--x-x-x-x---|
    
                 Bb
    Todo sigue igual
    todo sigue igual de bien,
                 Gm           F   D#
    siguen los amigos que quiero tener.
                   Bb
    No me puedo quejar.
                 Gm           F   D#
    Algunas chicas me van a entender,
                 Gm           F    D#
    en esos momentos que no aguanto más
                     Gm F
    
  •    Estiradas>>                                          B
       Estirar y bajar>>>                                   ba
       Slide>>>                                             s
       Sonidos armónicos>>>                                 <>
       Ligados ascendentes>                                 h
       Ligados descendentes>                                p
       Se mantiene la estirada>                             /
       Baja LA estirada                                     //
       Tremolo                                              *
       Toca la nota siguiente con la estirada mantenida      b/
    
    Les dejo estaba tabla con los diferentes efectos.
    
    Punteo:
    
    E  -----------------------------------------------------------
    B  ------------6----------------------------------------------
    G  -------3-5//---5h-3----3-5--5<--3---3-------------------3--
    D  --3--5-------------5-------------5---3----5p--3---3--5---5-
    A  ------------------------------------------------5----------
    
  • SOLO
    
    
    e|--------------------------------------------------6p3--------
    B|-----------6------------------------------------------6-6p3--
    G|-----3-5b----5p3---3-5ba-p3---3-------------3b---------------
    D|-3-5-------------5----------5---5p3---3-4-5----5-------------
    A|------------------------------------5------------------------
    E|-------------------------------------------------------------
    
    e|-------------------------------------------------------------
    B|--------------6----------------------------------------------
    G|-5-5p3---3-5b---5p3---3b----------------3-5-5ba-p3---3b------
    D|-------5------------5----5--5p3---3-4-5------------5---------
    A|--------------------------------5----------------------------
    E|-------------------------------------------------------------
    
    e|----1-1----1-----s6-6--------------------------s6-6----------
    B|----1-1----1-----s6-6--8-6---------------------s6-6-8-6------
    G|-3b-----3b---3b--------8-6h7----------3b-3b-3b------8-6h7----
    D|-----------------------------
  • Intro del VERSO
    (Fíjense bien que entra junto con la voz, yo se los marco bien cómo es)
    
      'To-do si-gue iguaaal...'
    G|-------------------
    D|-------------------
    A|-------1---------1- ...sigue en Verso
    E|--1-3------3-------
    
    Verso (conectado a la parte anterior)
    G|---------------------
    D|---------------------
    A|...1-1-1-----3-1-1-1-		todo x2
    E|---------1-3---------
    
    Puente 1
    G|-------------------------------
    D|----------5--5-3--3-3-1--1-1-1-
    A|-----1-------------------------
    E|-1-3---3-----------------------
    
    
    ** Verso x1 **
    
    
    Puente 2
    G|-------------------------------
    D|----------5--5-3--3-3-1--1-1-1-
    A|-----1-------------------------
    E|-1-3---3-----------------------
    
    G|-------------------------------
    D|----------5--5-3--3-3-1--1-1-1-
    A|-----1-3-----------------------
    E|-1-3---------------------------
    
    G|-------------------------------------
    D|-------------------------------------
    A|---1-3-5------5-5-3-1------3-3-1-0-1- ...sigue en Verso (Parte 
  • +
    ¡Colabora con nosotros!
    Envíanos tu versión de esta canción

Letra de Todo Sigue Igual
Todo sigue igual
todo sigue igual de bien,
siguen los amigos que quiero tener.
No me puedo quejar.
Algunas chicas me van a entender,
en esos momentos que no aguanto más
me puedo conformar.
Hago lo que quiero
hacer, y no me sale mal
algunas cosas me tocó perder,
y otras pude ganar.
Tengo la banda que quiero tener,
y más de una razón para pensar
que todo sigue igual.
Cambiar, no cambió nada
llegando hasta donde hoy llegué.
Todo está como estaba
todo está igual de bien.




[Todo Sigue Igual chords][Todo Sigue Igual cifra]
© LaCuerda.net · aviso legal · privacidad · es · en · pt · contacto