Acordes de Guitarra » V »Viejas Locas » Caminando por las piedras (Tab)

Caminando por las piedras
Viejas Locas

Letras, Acordes y Tabs para Guitarra, Bajo y Ukulele

  • LA                            MI
    cuando crei que eras mi amor, huistes corriendo
    LA                      RE
    y pase mucho el tiempo, caminando con las piedras
             LA         MI  RE7  LA MI
    que compre, que compre ayer.
    LA                   MI
    hicimos el amor al costado de una avenida
    LA                    RE
    y cuando despertaste ya estaba el sol
           LA     MI     RE7   LA MI
    que te vio durmiendo desnuda.
    
    acompaña la armonica
    LA MI LA RE LA MI RE LA
    LA                        MI  
    quede solo en un cuarto aturdido por mis nervios
    LA                  RE
    imaginando acordes para hacerte una cancion
    LA         MI     RE7      LA MI
    
  •    A               E             D
    e|-------0-----------------------------------------------
    B|---------2---------------------------------------------
    G|-----2-----2-----------1-------2--2h4-4-2-----------2-2
    D|---2---------2-----------2-----0--0---0-0--------------
    A|-0---------------2--2------2---------------------------
    E|-------------------------------------------------------
                                             ------´`-----
      Piano adaptado a guitarra             |             |
    e|---------------------------------------s5--7--8--8s9---------
    B|-------------------------------------------------------------
    G|---------------------------------------s6--7--8--8s9---------
    D|-------------------------------------------------------------
    A|-------------------------------------------------------------
    E|-------------------------------------------------------------
    
      Durante armonica (partes adaptadas del piano a guitarra)
       A                            E                 A
    e|----------------------------|----5p4-4-2s4-2-0-|---5-----7s9-7--5-
    B|-------2-----2--------------|------------------|------------------
    
  • Intro
    
    G----------------------------
    D----------------------------
    A----------------------------
    E-5-0-2-5-2------------------
    
    G----------------------------
    D----------------------------
    A---5h7-7-5-4---5h7-7-5-4----
    E-5-----------5--------------
    
    G----------------------------
    D---7h9-9-7-6---7h9-9-7------
    A-7-----------7---------9-7--
    E----------------------------
    
    G----------------------------
    D----------------------------
    A---5h7-7-5-4---5h7-7-5-4----
    E-5-----------5--------------
    
    G----------------------------
    D---5h7-7-5-4---5h7-7-5------
    A-5-----------5---------7-5--
    E----------------------------
    
    G----------------------------------------------
    D----------------7h9-7-----5h7-5---------------
    A---5h7-7-5-4--7-------9-5-------7-------------
    E-5--------------------------------5-5-0-2-5-2-
    
    Verso 'Cuando creì...'
    
    G--------------------------------------
    D---7---5h7-7----5h7-------------------
    A-----7-------77-----7-7---5h7-7----7--
    E-5----------
  • Buenas, acá les dejo este lindo temita!!!
    El tema esta en armónica en A (la)
    
    Primero solo:
    
    5—-5(5)5(4 tue(3) 33
    
    5—5(4)5(5)tue(5)6(5)
    
    4(4)5—5(5)5(4)tueue 444
    
    
    Segundo solo:
    
    5—5(5)5(4)tue(3)33
    
    5—5(4)5(5)tue(5)6(5)
    
    4(4)5—5(5)5(4)tueue
    
    (4)tue(4)tue(4)tue 4 44
    
    
    Después va cantando y la armónica va haciendo esto:
    
    (5)—(5)6(5)5(4)(4)tue 4
    
    (4)tue 5(5)ue ue(4)6
    
    5 (4)4...
    y arranca otra vez como al principio pero mas
    lento y con algunos cambios mínimos, no los escribí
    Porque me dio fiaca. Saludos.
    Cualquier sugerencia les dejo mi correo tuli8787@hotmai.com
  • +
    ¡Colabora con nosotros!
    Envíanos tu versión de esta canción

Letra de Caminando por las piedras
cuando crei que eras mi amor, huistes corriendo
y pase mucho el tiempo, caminando con las piedras
que compre, que compre ayer.
hicimos el amor al costado de una avenida
y cuando despertaste ya estaba el sol
que te vio durmiendo desnuda.
acompaña la armonica
quede solo en un cuarto aturdido por mis nervios
imaginando acordes para hacerte una cancion
que va ser para mi tu recuerdo.
y voy cruzando otra vez por este amargo clima
sos mi unica esperanza para volver a salir.
repite solamente:
cuando crei que eras............




[Caminando por las piedras chords][Caminando por las piedras cifra]
© LaCuerda.net · aviso legal · privacidad · es · en · pt · contacto
DINAMICO