Acordes de Guitarra » V »Vicente Fernandez » Para Siempre (Tab)

Para Siempre
Vicente Fernandez

Letras, Acordes y Tabs para Guitarra, Bajo y Ukulele

  •                    Em
    Vale más, un buen amor
                        B7
    que mil costales de oro,
         Am            B7
    vale más, un buen amor
                     Em
    por eso eres mi tesoro.
    
    
          Em
    Valgo mucho, junto a ti
                        B7
    y soy muy feliz contigo,
            Am        B7
    vales mucho, para mí
                       Em
    con el corazón te digo.
    
    
    
  • E-------------0-2-3-2h3p2--0---0---------------------------
    B----------0-----------------4---0-1---0h1---0-------------
    G--------0---------------------------2-----2---------------
    D------2---------------------------------------------------
    A----2-------------------------------------------2h3h5---2-
    E--0-------------------------------------------------------
    
    
    E-----------------------------------------0-------
    B---0---0---0---0---0---0---0-----------0---------
    G-4---5---2---4---0---2---------------0-----0-----
    D-------------------------4---------2-----------2-
    A---------------------------------2-------------2-
    E-------------------------------0---------------0-
    
    Vale más un buen amor
    (Esta parte va rápida)
    E------0-----0----0-----0------0-------0-------0--
    B----0-----0----0-----0------0------0--------0----
    G-4-----4----5------2-----4-------0-------2-------
    
  • INTRO:-Am-
    
    Am
    Vale mas, un buen amor
                        E7
    Que mil costales de oro
          Dm           E7
    Vale mas, un buen amor
                       Am
    Por eso eres mi tesoro
    
    
    Valgo mucho, junto a ti
                       E7
    Y soy muy feliz contigo
           Dm         E7
    Vales mucho, para mi
                       Am
    Con el corazón te digo
    
    
  • e-------------0-2-3-2h3p2--0---0---------------------------
    B----------0-----------------4---0-1---0h1---0-------------
    G--------0---------------------------2-----2---------------
    D------2---------------------------------------------------
    A----2-------------------------------------------2h3h5---2-
    E--0-------------------------------------------------------
    
    
    e-----------------------------------------0-------
    B---0---0---0---0---0---0---0-----------0---------
    G-4---5---2---4---0---2---------------0-----0-----
    D-------------------------4---------2-----------2-
    A---------------------------------2-------------2-
    E-------------------------------0---------------0-
    
    Vale más un buen amor
    (Esta parte va rápida)
    e------0-----0----0-----0------0-------0-------0--
    B----0-----0----0-----0------0------0--------0----
    G-4-----4----5------2-----4-------0-------2-------
    
  •       B7
      E A D G B E
    1 | | | | | |
    2 | * | * | *
    3 | | | | | |
    4 | | * | * |
    
                       Em
    Vale más, un buen amor
                        B7
    Que mil costales de oro
           Am           B7
    Vale más, un buen amor
                       Em
    Por eso eres mi tesoro
    
    
    Valgo mucho, junto a ti
                        B7
    Y soy muy feliz contigo
    
  • Hola. Para tocarla se necesita ponerle el capo a la guitarra
    en el primer traste y contar a partir del capo.
    
    
    (Esta parte se hace más fácil si lo tocan en forma de arpegio)
    
    
    E-------------0-2-3-2h3p2--0---0---------------------------
    B----------0-----------------4---0-1---0h1---0-------------
    G--------0---------------------------2-----2---------------
    D------2---------------------------------------------------
    A----2-------------------------------------------2h3h5---2-
    E--0-------------------------------------------------------
    
    
    E-----------------------------------------0-------
    B---0---0---0---0---0---0---0-----------0---------
    G-4---5---2---4---0---2---------------0-----0-----
    D-------------------------4---------2-----------2-
    A---------------------------------2-------------2-
    E-------------------------------0---------------0-
    
    Vale más un buen amor (en esta parte va arpegiada)
    
    
    E------0-----0----0-----0------0-------0-------0--
    B----0-----0----0-----0------0------0--------0--
  • E-1------------------------------------------------------------
    A---3--------------------------------------------------3h4h6-3-
    D-----3--------------------------------------------------------
    G-------1----------------------------3------/3-----------------
    B---------1-----------------5----1-2---1h2p1---1---------------
    E-----------1--3-4-3h4p3--1---1--------------------------------
    
    
    E---------------------------------------------------1--1------
    A-------------------------------------------------1----1------
    D-8-------8-----------8-5-----------------------1------1------
    G-----6-------5---1---------------------------3---------------
    B---1---1---1---1---1----------------------3---------------3--
    E--------------------------------------1-------------------1--
    
    AQUÍ NECESITAS ALGO DE VELOCIDAD PARA DARLE EL SONIDO CORRECTO.
    
    Vale más, un buen amor
    E-------------------------------------------------------------
    A-------------------------------------------------------------
    
  • +
    ¡Colabora con nosotros!
    Envíanos tu versión de esta canción
  • Tutorial
    HD
    Como tocar PARA SIEMPRE en Guitarra
    1:39

Letra de Para Siempre
Vale más, un buen amor
que mil costales de oro,
vale más, un buen amor
por eso eres mi tesoro.
Valgo mucho, junto a ti
y soy muy feliz contigo,
vales mucho, para mí
con el corazón te digo.
Olvidemos, el pasado
y lo que diga la gente,
la verdad es que TE AMO
y ME AMAS PARA SIEMPRE.
Olvidemos el pasado
y vivamos el presente
lo que importa es
que ME AMAS
y TE AMO PARA SIEMPRE
Vale mucho, un gran amor
Que en el perdón a crecido,
hoy sé que el llanto sirvió
para reforzar el nido.
Olvidemos, el pasado
y lo que diga la gente,
la verdad es que TE AMO
y ME AMAS PARA SIEMPRE.
Olvidemos el pasado
y vivamos el presente
lo que importa es
que ME AMAS
y TE AMO PARA SIEMPRE........
Dedicada para:MIZC
TE AMO
"MI NIÑA HERMOSA"




[Para Siempre chords][Para Siempre cifra]
© LaCuerda.net · aviso legal · privacidad · es · en · pt · contacto