Acordes de Guitarra » V »Vicente Fernandez » Estos Celos (Tab)

Estos Celos
Vicente Fernandez

Letras, Acordes y Tabs para Guitarra, Bajo y Ukulele

  •  E ,B7, A, B7, A       E, B7, E.
    
          E                               E
    Te miré, estabas tan bonita...tan sensual
                                B7
    Te imagine ajena y me hizo mal
    B7          A
    Aaaaay ay amor
    B7              A
    Aaaaay ay que dolor
         E                   Gm        B7           E
    Que tarde comprendí, contigo tenia todo y lo perdí
    
    
          E                                   E
    Te miré, con tu melena al viento...y tú mirar
                                B7
    Al ras de tu escote, tu lunar
    B7          A
    Aaaaaay ay amor
    
  • E B7 A B7 A E B7 E
    Intro
    
    E
    Te diré estabas tan bonita…tan sensual
                               B7
    te imagine ajena y me hizo mal
               A  B7             A
    ayyy hay amor ayyy ay que dolor
         E
    que tarde comprendí
       B7                      E
    contigo tenia todo y lo perdí,
    
    E
    te diré con tu melena al viento… y tu mirar
                             B7
    al ras de tu escote, tu lunar
               A  B7            A
    ayyy hay amor ayyy ay que dolor
    
  • Intro E ,B, A, B, A       E, B, E.
    
          E                               E
    Te miré, estabas tan bonita...tan sensual
                                B
    Te imagine ajena y me hizo mal
    B          A
    Aaaaay ay amor
    B              A
    Aaaaay ay que dolor
         E                   B                      E
    Que tarde comprendí, contigo tenia todo y lo perdí
    
    
          E                                   E
    Te miré, con tu melena al viento...y tú mirar
                                B
    Al ras de tu escote, tu lunar
    B           A
    Aaaaaay ay amor
    
  •     E
    1---4--0--2--0--4--0--2--0--4--0--2--0--4----------------
    2---5--0--2--0--5--0--2--0--5--0--2--0--5----------------
    3--------------------------------------------------------
    4--------------------------------------------------------
    5--------------------------------------------------------
    6--------------------------------------------------------
                                            B7
    1---4--0--2--0--4--0--2--0--4--0--2--0-------------------
    2---5--0--2--0--5--0--2--0--5--0--2--0--4----------------
    3--------------------------------------------------------
    4--------------------------------------------------------
    5--------------------------------------------------------
    6--------------------------------------------------------
    
    Esto va con otro instrumento pero con guitarra seria asi:)
        B7                A     B7          A
    1---5--5/7--9--7--9--7-----5--5/7--9--7----9--7----------
    2-----------------------10--------------10------10-------
    3--------------------------------------------------------
    
  •    E
    1--7---4---5---4-----7---4---5---4-----7---4---5---4---7-----5--5--4/5-
    2--9---5---7---5-----9---5---7---5-----9---5---7---5---9---------------
    3----------------------------------------------------------------------
    4----------------------------------------------------------------------
    5----------------------------------------------------------------------
    6----------------------------------------------------------------------
                                                         B7
    1--7---4---5---4-----7---4---5---4-----7---4---5---4---2---------------
    2--9---5---7---5-----9---5---7---5-----9---5---7---5---4---------------
    3----------------------------------------------------------------------
    4----------------------------------------------------------------------
    5----------------------------------------------------------------------
    6----------------------------------------------------------------------
    
                         A               B7                  A
    1--2/11---12---11---12---11---9-----2/11---14---12---11---12---11---9--
    3----------------------------------------------------------------------
    4----------------------------------------------------------------------
    5----------------------------------------------------------------------
    
  • +
    ¡Colabora con nosotros!
    Envíanos tu versión de esta canción

Letra de Estos Celos
Te miré, estabas tan bonita...tan sensual
Te imagine ajena y me hizo mal
Aaaaay ay amor
Aaaaay ay que dolor
Que tarde comprendí, contigo tenia todo y lo perdí
Te miré, con tu melena al viento...y tú mirar
Al ras de tu escote, tu lunar
Aaaaaay ay amor
Aaaaaay ay que dolor
Hoy muero de pensar, que no voy a ser yo al que vas amar
Estos celos me hacen daño me enloquecen
Jamás aprenderé a vivir sin ti
Lo peor es que muy tarde comprendí...si, si
Contigo tenia todo y lo perdí
Contigo tenia todo y lo perdí
….INTRO
Te miré me confundió el llanto… que rodó
Surgió una esperanza pero no,
Nooooo ya hay amor
Nooooo y fue mi error
Y hoy muero de pensar, que no voy a hacer yo al que vas a amar
Estos celos me hacen daño me enloquecen
Jamás aprenderé a vivir sin ti
Lo peor es que muy tarde comprendí...si, si
Contigo tenia todo y lo perdí
Contigo tenia todo... y lo perdí
La ultimad nota se queda tres tiempos para el final…
Espero les agrade... saludos y xau




[Estos Celos chords][Estos Celos cifra]
© LaCuerda.net · aviso legal · privacidad · es · en · pt · contacto