Letra y Acordes de Vicente Fernandez: Para Siempre
Conexión · Inscripción
Letras y Acordes
Pantalla Completa
Imprimir
Versión Texto
Añadir Favorito
Otras Versiones

Mostrar Diagramas
Desfile Automático
Manipular Acordes
Formato del Texto


Para Siempre

Vicente Fernandez

calidad:
vfer1217
AUTOR: Joan Sebastian
ALBUM: Para Siempre
Enviado por Angel, basado en Juan
La transcripción esta bien pero no es el tono original
y tenia algunos punteos equivocados,
escuchen la canción y verán que este es el tono real
y que es lo que mas se le parece.



***LLEVA CAPO EN EL 1° TRASTE:

INTRO:
e-------------0-2-3-2h3p2--0---0---------------------------
B----------0-----------------4---0-1---0h1---0-------------
G--------0---------------------------2-----2---------------
D------2---------------------------------------------------
A----2-------------------------------------------2h3h5---2-
E--0-------------------------------------------------------


e-----------------------------------------0-------
B---0---0---0---0---0---0---0-----------0---------
G-4---5---2---4---0---2---------------0-----0-----
D-------------------------4---------2-----------2-
A---------------------------------2-------------2-
E-------------------------------0---------------0-

Vale más un buen amor
(Esta parte va rápida)
e------0-----0----0-----0------0-------0-------0--
B----0-----0----0-----0------0------0--------0----
G-4-----4----5------2-----4-------0-------2-------
D------------------------------------------------
A------------------------------------------------
E-----------------------------------------------

B7 Que mil costales de oro
Am B7 Vale mas, un buen amor
Em Por eso eres mi tesoro Valgo mucho, junto a ti
B7 Y soy muy feliz contigo
Am B7 Vales mucho, para mi
Em Con el corazón te digo
D7 G Olvidemos, el pasado
D7 G Y lo que diga la gente
Am Em La verdad es, que te amo
B7 Em Y me amas, Para siempre
D7 G Olvidemos, el pasado
D7 G Y vivamos, el presente
Am Lo que importa es
Em Que me amas,
B7 Em y te amo, para siempre e-5-7-8-5-7-8-5-7-8-5-7-8-7-8-10-12-7----------------------- B-------------------------------------8-------8-7-10-10-10-- G---------------------------------------9---9--------------- D----------------------------------------------------------- A----------------------------------------------------------- E----------------------------------------------------------- e--------------------------------------------- B--8-10-12------------------------------------ G--------------------------------------------- D--------------------------------------------- A--------------------------------------------- E--------------------------------------------- e-5-7-8-5-7-8-5-7-8-5-7-8-7-8-10-12-7----------------------- B-------------------------------------8-------8-7-10-10-10-- G---------------------------------------9---9--------------- D----------------------------------------------------------- A----------------------------------------------------------- E----------------------------------------------------------- e--------------------------------------------- B--12-10-8------------------------------------ G--------------------------------------------- D--------------------------------------------- A--------------------------------------------- E---------------------------------------------
Em Vale mucho, un gran amor
B7 Que en el perdón a crecido
Am B7 Hoy se que el llanto sirvió
Em Para reforzar el nido
D7 G Olvidemos, el pasado
D7 G Y lo que diga la gente
Am Em La verdad es, que te amo
B7 Em Y me amas, Para siempre
D7 G Olvidemos, el pasado
D7 G Y vivamos, el presente
Am Lo que importa es
Em Que me amas,
B7 Em y te amo, para siempre FIN: e-5-7-8-5-7-8-5-7-8-5-7-8p7-8-10-12-7----------------------- B-------------------------------------8-------8-7-10-10-10-- G---------------------------------------9---9--------------- D----------------------------------------------------------- A----------------------------------------------------------- E----------------------------------------------------------- e-------------7-12---------------------------- B--12-10-8------------------------------------ G--------------------------------------------- D--------------------------------------------- A--------------------------------------------- E---------------------------------------------
Este fichero es trabajo propio de su transcriptor y representa su interpretación personal de la canción. El material contenido en esta página es
para exclusivo uso privado, por lo que se prohibe su reproducción o retransmisión, así como su uso para fines comerciales.

© LaCuerda.net · Aviso Legal · Privacidad