Tablatura para Guitarra de Vicente Fernandez: Para Siempre
Conexión · Inscripción
Letras y Acordes
Pantalla Completa
Imprimir
Versión Texto
Añadir Favorito
Otras Versiones

Mostrar Diagramas
Desfile Automático
Manipular Acordes
Formato del Texto


Para Siempre(TAB)

Vicente Fernandez

calidad:
vfer1216
AUTOR: Joan Sebastian
ALBUM: Para Siempre
Enviado por JAVIER
HOLA SOY JAVIER Y ESTA ES LA PRIMERA VEZ QUE COLABORO CON LACUERDA.NET
Y ESPERO LES SEA DE MUCHA UTILIDAD LA TRANSCRIPSION DE ESTA BELLIZIMA
CANCION DEL SEÑO VICENTE FERNANDEZ YA QUE ADEMAS DE SER UNA EXCELENTE
CANCION ESTA MUY DE MODA.
Y BUENO LA CANCION COMIENZA ASI SE USA CAPO EN EL PRIMER TRAZTE O SEA
QUE LA CANCION ESTA EN Fm DE LO CONTRARIO SI NO USAS CAPO ALGUNOS
ARPEGIOS NO DARAN EL SONIDO INDICADO PARA QUE SUENE COMO ESTILO
FLAMENCO.
CON CAPO SE TOCA ASI COMO ESTA ABAJO Y SI LO TOCAS SIN CAPO ENTONCES
LA CANCION ESTARA SIMPLEMENTE EN Em.

E-1------------------------------------------------------------
A---3--------------------------------------------------3h4h6-3-
D-----3--------------------------------------------------------
G-------1----------------------------3------/3-----------------
B---------1-----------------5----1-2---1h2p1---1---------------
E-----------1--3-4-3h4p3--1---1--------------------------------


E---------------------------------------------------1--1------
A-------------------------------------------------1----1------
D-8-------8-----------8-5-----------------------1------1------
G-----6-------5---1---------------------------3---------------
B---1---1---1---1---1----------------------3---------------3--
E--------------------------------------1-------------------1--

AQUÍ NECESITAS ALGO DE VELOCIDAD PARA DARLE EL SONIDO CORRECTO.

Vale más, un buen amor
E-------------------------------------------------------------
A-------------------------------------------------------------
D-3-----------------------------------------------------------
G---5---5------5---3---3--5---5--0---0--3---------------------
B-----1---1--2---2---1------1------1--------------------------
E-------------------------------------------------------------
C7 Que mil costales de oro
Bbm C7 Vale mas, un buen amor
Fm Por eso eres mi tesoro Valgo mucho, junto a ti
C7 Y soy muy feliz contigo
Bbm C7 Vales mucho, para mi
Fm Con el corazón te digo
Bbm Eb Fm Olvidemos, el pasado
Bbm-Eb Fm Y lo que diga la gente
Bbm Fm La verdad es, que te amo
C7 Fm Y me amas, Para siempre
Bbm Eb Fm Olvidemos, el pasado
Bb Eb Fm Y vivamos, el presente
Bbm Lo que importa es
Fm Que me amas,
C7 Fm y te amo, para siempre B-------------------------------------------9-6- E-6-8-9--6-8-9--6-8-9--6-8-9-8-9-11-11/13-8----- B----------------------------------------------- E-6-9-8-9/11-11-11-9-11/13---------------------- B-------------------------------------------9-6- E-6-8-9--6-8-9--6-8-9--6-8-9-8-9-11-11/13-8----- B----------------------------------------------- E-6-9-8-9/11-11-11-11/13-11-9-------------------
Bbm-Fm-C7-Fm-Bbm-Fm-C7-Fm Vale mucho, un gran amor
C7 Que en el perdón a crecido
Bbm C7 Hoy se que el llanto sirvió
Fm Para reforzar el nido
Bbm Eb Fm Olvidemos, el pasado
Bbm-Eb Fm Y lo que diga la gente
Bbm Fm La verdad es, que te amo
C7 Fm Y me amas, Para siempre
Bbm Eb Fm Olvidemos, el pasado
Bb Eb Fm Y vivamos, el presente
Bbm Lo que importa es
Fm Que me amas,
C7 y te amo, para siempre B-------------------------------------------9-6- E-6-8-9--6-8-9--6-8-9--6-8-9-8-9-11-11/13-8----- B----------------------------------------------- E-6-9-8-9/11-11-11-11/13-11-9-------------------
FIN:-Bbm-Fm-C7-Fm- -C7-Fm SALUDOS A LA RONDALLA AMANECER ROMANTICO ALIAS (RONDALLA ASESINA)
Este fichero es trabajo propio de su transcriptor y representa su interpretación personal de la canción. El material contenido en esta página es
para exclusivo uso privado, por lo que se prohibe su reproducción o retransmisión, así como su uso para fines comerciales.

© LaCuerda.net · Aviso Legal · Privacidad