Acordes de Guitarra » V »Vicente Fernandez » Hermoso cariño (Tab)

Hermoso cariño
Vicente Fernandez

Letras, Acordes y Tabs para Guitarra, Bajo y Ukulele

  • INTRO: F - G7 - C - G7-C
    
    
    1 ----5-5--4-2--5-5---5-5--4-2--5-4-5-4-5-4-5-4
    2 ---------------------------------------------
    3 ----6-6--4-2--6-6---6-6--4-2--6-4-6-4-6-4-6-4
    
    1-4-4-2-0-2-2---2-2-0-0-2-2/5---5--4-2-0
    2---------------------------------------
    3-4-4-2-1-2-2---2-2-1-1-2-2/6--6--4-2-1-
    
     G7     C
    Hermoso cariño
    
    Hermoso cariño
    
    que Dios me ha mandado
    
    a ser destinado
           G7
    
  • INTRO: F - G7 - C - G7-C
    
     G7     C
    Hermoso cariño
    
    Hermoso cariño
    
    que Dios me ha mandado
    
    a ser destinado
           G7
    nomas para mi
    
    
    Precioso regalo
    
    Precioso regalo
    
    Del cielo ha llegado
                   F        G7         C  Dm-Em   (**DOS GOLPES POR ACORDE)
    
  • INTRO: F-G7, C, G7, C
    
     C
    Hermoso cariño
    
    Hermoso cariño
    
    que Dios me ha mandado
    
    a ser destinado
       Cdim  G7
    nomás para mi
    
    G7
    Precioso regalo
    
    Precioso regalo
    
    del cielo ha llegado
    
    
  •      F
    e-12----12---10---8---12-12----12--12---10---8----12-10-12-10-12-10-12--
    B-13----13---12---10--13-13----13--13---12---10---13-12-13-12-13-12-13--
    G------------------------------------------------------------
    d------------------------------------------------------------
    
    e-10--10--10----8---7--8--8-----8--8--7--5--8--8----10----12---10----8---7-
    B-12--12--12---10--8---10-10---10-10--8--7-10-10---12--13---12---10---8-
    G------------------------------------------------------------
    D------------------------------------------------------------
    
      C
    Hermoso cariño
    Hermoso cariño
    que Dios me ha mandado
    a ser destinado
        Cdim    G7
    nomas  para MI
     G7
     Precioso regalo
    
  • este es el intro de la cancion con 
    la guitarra,es mas o menos asi:
    
    
    e--11-11--10-8--11-11  
    B--------------------
    G--12-12--10-8--12-12
    D--------------------
    A--------------------
    E--------------------
    
    e--11-11--10-8-11-10-11-10-11-10
    B-------------------------------
    G--12-12--10-8-12-10-12-10-12-10
    D-------------------------------
    A-------------------------------
    E-------------------------------
    
    e--10-10--8-6-8-8--6-6-4-6-6--6-6-4-3-4
    B--------------------------------------
    G--10-10--8-7-8-8--6-6-5-6-6--6-6-5-3-5
    D--------------------------------------
    A--------------------------------------
    E--------------------------------------
    
    e-6-8-10-12
    B----------
    G-6-8-10-12
    D----------
    A----------
    E----------
    
    e-12-10-8-6
    B----------
    G-12-10-8-6
    D----------
    A----------
    E----------
    
    antes de empesar la cancion el bajo
     acompaña a la guitarra asi: 
    
    e---------------
    B---------------
    G---------------
    D---------------
    A--2-2--3-3--4-4
    E--------
  • +
    ¡Colabora con nosotros!
    Envíanos tu versión de esta canción
  • Tutorial
    HD
    Hermoso Cariño - Tutorial de Guitarra ( Vicente Fernandez )
    Para Principiantes
    9:44

Letra de Hermoso cariño
Hermoso cariño
Hermoso cariño
que Dios me ha mandado
a ser destinado
nomás para mi
Precioso regalo
Precioso regalo
del cielo ha llegado
y que me ha colmado de dicha
y amor
Hermoso cariño
hermoso cariño
ya estoy como un niño
Con nuevo juguete
Contento y feliz.
No puedo evitarlo ni quiero gritarlo
Hermoso cariño que Dios ha mandado
Nomas para mi.
Hermoso cariño
hermoso cariño
ya estoy como un niño
Con nuevo juguete
Contento y feliz.
No puedo evitarlo ni quiero gritarlo
Hermoso cariño que Dios ha mandado
Nomas para mi.




[Hermoso cariño chords][Hermoso cariño cifra]
© LaCuerda.net · aviso legal · privacidad · es · en · pt · contacto