Acordes de Guitarra » V »Vicente Fernandez » Mujeres Divinas (Tab)

Mujeres Divinas
Vicente Fernandez

Letras, Acordes y Tabs para Guitarra, Bajo y Ukulele

  •    MIm
    Hablando
          MI7        LAm
    de mujeres y traiciones
         RE7
    se fueron consumiendo
          SOL
    las botellas
        MIm   
    pidieron que cantara
           MI7
    mis canciones
      SI7
    y yo cantè las dos
                 MIm
    encontra de ellas
    
                      MI7         LAm
    De pronto que se acerca un caballero
        RE7                      SOL
    
  •   Fm          F7          Bbm
    Hablando de mujeres y traiciones
       Eb7                      Ab
    se fueron consumiendo las botellas
        Db                      C7
    pidieron que cantara mis canciones
                                    Fm
    y yo canté las dos en contra de ellas
    
       Fm             F7           Bbm
    De pronto que se acerca un caballero
       Eb7                     Ab
    su pelo ya pintaba algunas canas
       Db                   C7
    me dijo le suplico compañero
                                        Fm
    que no hable en mi presencia de las damas.
    
    (son:)
       Bbm        Eb7          Ab
    
  • . D G D G B7 Em B7 Em
    
          Em        E7          Am
    . Hablando de mujeres y traiciones
           D                       G
      se fueron consumiendo las botellas
          Em                       Am
      pidieron que cantara mis canciones
        B7                             Em
      y yo cante unas dos en contra de ellas
    
          Em            E7             Am
      De pronto que se acerca un caballero
         D                       G
      su pelo ya pintaba algunas canas
          Em                   Am
      me dijo le suplico compañero
           B7                              Em
      que no hable en mi presencia de las damas.
    
    
  • -------------------------------------4---4-5-7--
    ------------------------------------------------
    ------------------------------------------------
    ------------------------------------------------
    
    
    -3---2---0---2-2---5-5---2-2---0-0-------3-5-7--
    -5---3---1---3-3---7-7---3-3---1-1---3----------
    -------------------------------------4---4-5-7--
    ------------------------------------------------
    ------------------------------------------------
    ------------------------------------------------
    
    
    -7h8------------7h8------------7h8--------------
    -----10-7-----------10-7-----------10-8-7-------
    ----------8--------------8----------------9-----
    ------------9--------------9--------------------
    ------------------------------------------------
    ------------------------------------------------
    
  •              D#7 G#                  D#7 G#7
    
    e-4---3---1---3-3---6-6---2-2---1-1-------8-9--11----
    b-6---4---2---4-4---8-8---3-3---2-2---4---9-11-13----
    g-------------------------------------5--------------
    d----------------------------------------------------
    a----------------------------------------------------
    E----------------------------------------------------
    
                   D#7 G#7                 D#7 G#7
    e-4---3---1---11-11---15-15---11-11---9--9----8------------
    b-6---4---2---13-13---16-16---12-12---11-11---9-----2-4----
    g-------------------------------------------------5-3-5----
    d-------------------------------------------------6--------
    a----------------------------------------------------------
    E----------------------------------------------------------
    
     C#7  Fm                         C#7  Fm
    e--------------------------------------------------------------------
    b--4-4-4-4-4-----------------------------1---------------------------
    
  • LAm                      REm
    Hablando de mujeres y traiciones
    
    SOL                        DO 
    Se fueron consumiendo las botellas
    
    LAm                      MI 
    Pidieron que cantara mis canciones
    
                                  LAm
    y yo cante unas dos en contra de ellas.
    
    
    
                               REm
    De pronto que se acerca un caballero
    
    SOL                        DO 
    Su pelo ya pintaba algunas canas
    
    
  •            D7                G
    1ª------------------------------7--8-10-----
    2ª--8—7-5—-7-7-10-10-7-7-5-5-3--8-10-12-----
    3ª--9-7-5--7-7-11-11-7-7-5-5-4-------------
    4ª-----------------------------------------
    5ª-----------------------------------------
    6ª-----------------------------------------
       D7                       G
    1ª-10-10-14-14-10-10—8—8-7--3-5-7-------
    2ª--------------------------------------
    3ª-11-11-14-14-11-11-9-9-7-—4-5-7-------
    4ª--------------------------------------
    5ª--------------------------------------
    6ª--------------------------------------
        B7                      Em               B7     Em
    e---------------------------------------------------------------
    b—-3-3-3-3-3-3-3--------------------0---------------------------
    g—-4-4-4-4-4-4-4--2-0-4-2-0-4--2------2-0-----------------------
    d-----------------------------------------4-2-1--2-4-5----------
    a---------------------------------------------------------------
    
  • +
    ¡Colabora con nosotros!
    Envíanos tu versión de esta canción
  • Tutorial
    HD
    Como tocar MUJERES DIVINAS guitarra
    2:49

Letra de Mujeres Divinas
Hablando
de mujeres y traiciones
se fueron consumiendo
las botellas
pidieron que cantara
mis canciones
y yo cantè las dos
encontra de ellas
De pronto que se acerca un caballero
su pelo, ya pintaba algunas canas
me dijo le suplico compañero
que no hable en mi presencia de las damas.
Le dije que nosotros simplemente
hablamos de lo mal
que nos pagaron
que si alguien
opinaba diferente
serìa porque jamàs lo traicionaron
que si alguien....
Me dijo yo soy uno de los seres
que màs a soportado los fracasos
y siempre me dejaron las mujeres
llorando y con el alma hecha pedazos
màs nunca les reprecho mis heridas
se tiene que sufrir cuando se ama
las horas màs hermosas de mi vida
las he pasado al lado de una dama.
Pudieramos morir en las cantinas
y nunca lograrìamos olvidarlas
mujeres o mujeres tan divinas
no queda otro camino que adorarlas
Mujeres....




[Mujeres Divinas chords][Mujeres Divinas cifra]
© LaCuerda.net · aviso legal · privacidad · es · en · pt · contacto