Acordes de Guitarra » V »V8 » Tiempos Metálicos (Tab)

Tiempos Metálicos
V8

Letras, Acordes y Tabs para Guitarra, Bajo y Ukulele

  • e|---------------------------------------------------------------------|
    B|---------------------------------------------------------------------|
    G|---------------------------------------------------------------------|
    D|-----9--5-------------------9--5-------------------9--5-----------7--|
    A|--7--7--3--3-2^3^2--7\---7--7--3--3-2^3^2--7\---7--7--3--3-2^3^2--5--|
    E|--5-----------------5\---5-----------------5\---5--------------------|
    
                                                            2da X 2
    e|-----------------------------------------------------+-----------|
    B|-----------------------------------------------------+-----------|X2
    G|-----------------------------------------------------+-----------|
    D|-----------------------------------------------------+--------7--|
    A|--7---------------3/7---------------5/7--------------+--3^2^0-5--|
    E|--5--5-5-5-5-5-5--5/5--5-5-5-5-5-5--3/5--5-5-5-5-5-5-+-----------|
    
    
    A5
    Basta de hippies
    
    A5
    
  • punteo del estribillo 1:
    
    e|----------------------|-|---------|
    B|----------------10----|-|---------|
    G|---------9v--12-------|X|---------|
    D|-s10--10-----------7v-|3|---------|
    A|----------------------|-|-5-5-5-5-|
    E|----------------------|-|---------|
    
    punteo del estribillo 2:
    
    e|----------------------|-|----------------------|
    B|----------------10----|-|----------7b-7b-7b-7b-|
    G|---------9v--12-------|X|----------------------|
    D|-s10--10-----------7v-|3|----------------------|
    A|----------------------|-|-5-5-5-5--------------|
    E|----------------------|-|----------------------|
    
    solo de viola:
    
    e|-------------------------------------------------------
    B|-5v---5-8-5-8-5----------------------------------------
    G|----------------7-5-7-5---5-7-5-7-5v--7--5--7--5-------
    D|------------------------7-------------------------7-5v-
    A|-------------------------------------------------------
    E|-------------------------------------------------------
    
    -----------------------------------------------
  •           (2 veces)
    G|------------------------|---------------------------
    D|------------------------|---------------------------
    A|----7-------------------|----7-------------5--------
    E|-5-----8---7-8-7--5/12\-|-5-----8---7-8-7-----------
    
                                                     \
    G|----------------------------------             |
    D|----------------------------------             |
    A|--------------------------3-2-0-5-             |
    E|-5------3-5------3-5--------------             |  Parte
                                                     |    A
    G|-------------------------------------------    |
    D|-------------------------------------------    |
    A|--------------------------3-2-0-5--3-2-0-5-    |
    E|-5------3-5------3-5-----------------------    |
                                                     /
    
    
                        (2 vueltas)
    “Basta de hippies…     …estallo el tiempo del metal…
    G|----------------------------------------------------|
    D|-------------------------------------
  • +
    ¡Colabora con nosotros!
    Envíanos tu versión de esta canción

Letra de Tiempos Metálicos
2da X 2
Basta de hippies
basta de rogar
estalló el tiempo del metal.
Fuerza encarnada
En mí rugiendo está
Nadie la podrá frenar
Estalla la tierra
En llamas está
Mis sentimientos no he de ocultar
Harto de crisis y de escuchar
Propuestas que no servirán
Me hundo en el barro
De la maldad
Se aproxima el final
Se extiende la fuerza
Del candente metal
Se escapa el tiempo
Y no existe paz
Basta de engaños
De pensar y actuar
Como quieren los demás
Demencias sin causas
¿Quién las frenará?
¿Quién se arriesgará a negar?
Que estalla la tierra
Y que en llamas está
Se escapa el tiempo
Y no existe paz
No existe paz, no existe paz.




[Tiempos Metálicos chords][Tiempos Metálicos cifra]
© LaCuerda.net · aviso legal · privacidad · es · en · pt · contacto