Acordes de Guitarra » V »V8 » No enloqueceré (Tab)

No enloqueceré
V8

  • Tablatura
    A
    e|------------------------------------------------|
    B|------------------------------------------------|x2
    G|------------------5-----------------------------|
    D|-----7-7^5----5-----------7-7^5----5------------|
    A|------------7---7----------------7---7--3-------|
    E|--5--------------------5------------------------|
    
    A
    e|------------------------------------------------|
    B|------------------------------------------------|x2
    G|------------------------------------------------|
    D|----7-7^5----5--------------7-7^5----5----------|
    A|-----------7---7-6^5\3-------------7---7-6-5----|
    E|--5-----------------------5---------------------|
    
    D
    e|------------------------------------------------|
    B|------------------------------------------------|x2
    G|---------------------5-7------------------------|
    
  • Tab p/Bajo
    Intro
    G|--------------------------------------
    D|------------------------------7---7---
    A|-0--------0--------0--------0---------
    E|--------------------------------------
    
                  (2 veces)
    G|--------------------------------------|
    D|--7-7|5-5------------7-7|5-5----------|
    A|0------7---7-6|5|3-0------7---7--5--3-|
    E|--------------------------------------|
    
                   (2 veces)
    G|-----------------5|7-----------------------|
    D|-0-0-3|0-5--6--7------0-0-3|0-5--6--7--7|7-|
    A|-------------------------------------------|
    E|-------------------------------------------|
    
                 (2 veces)
    G|---------------------------------|
    D|--7-7|5-5------------7-7|5-5-----|
    A|0------7---7-6|5|3-0------7---7--|
    E|---------------------------------|
    
          “Ya no estoy cansado…             …nada sigue igual…
    G|-----------------------------------------------------------
    D|--------------------------------------------------------5--
    A|-5-5-----5-5-----5-5-----5-5----12\7--7-7-7-7-7-5-7-7-7--7-
    E
  • +
    ¡Colabora con nosotros!
    Envíanos tu versión de esta canción

Letra de No enloqueceré
Ya no estoy cansado,
sé muy bien que hacer,
ahora lo comprendo
NO HE DE ENLOQUECER
nada sigue igual,
D5/E5
ya murió el ayer
he parado de correr,
nada sigue igual,
D5/E5
ya murio el ayer,
ahora entiendo que
con la presencia de Dios aquí
mi alma no ha de morir,
con ningún temor me han de confundir.
C5/D5
C5/A5
Ya no estoy cansado,
sé muy bien que hacer,
ahora lo comprendo
no he de enloquecer.
nada sigue igual,
ya murio el ayer
he parado de correr,
nada sigue igual,
ya murio el ayer,
ahora si entiendo que
quien te induce a evadir
es quien te ha de reprimir,
con ese ardor no quiero seguir.



© LaCuerda.net · aviso legal · privacidad · contacto