Acordes de Guitarra » V »V8 » Deseando Destruir Y Matar (Tab)

Deseando Destruir Y Matar
V8

Letras, Notas, Punteos, Tablaturas y Acordes de Guitarra (Tabs & Chords)

  • Tablatura
    e|--------------------------------------------------------------------|
    B|--------------------------------------------------------------------|X4
    G|--------------------------------------------------------------------|
    D|--------3-2------7---------------7----------------------------------|
    A|--0-3-0------3-3/5-5--5-5-5-5--5-5-5--5-5-5-5--5-5---------------5--|
    E|-------------------------------------------------3-3--3-3-3-3--3-3--|
    
        
    D5           C5/F5/C5/D5
    La noche está, 
    ya por caer
    la soledad, nos deja ver,
    
    A5#                            G5
    que pronto se cierran las puertas,
    C5                        D5
    y el miedo envuelve el lugar,
    A5#               G5
    mil naves se acercan
    C5                    D5 / C5 / A5 / G5
    
  • Tab p/Bajo
    Intro
    
    G|----------------------------------------------------------------| 
    D|------------------3--2------------------------------------------| 
    A|--------0--3--0--------3----5-5-5-5-5-5-5-----------------------| 
    E|------------------------------------------------3-3-3-3-3-3-----| 
    
    Verso
    la noche esta...
    G|----------------------------------------------------------------|
    D|-----------------------------3----------------------------------|
    A|--------5-5-5-5-5-5-5--3---3------------------------------------|
    E|----------------------------------------------------------------|
    ...ya por caer
    G|----------------------------------------------------------------| 
    D|-----------------------------3----------------------------------| 
    A|--------5-5-5-5-5-5-5--3---3------------------------------------| 
    E|----------------------------------------------------------------| 
    
    Estribillo
    
    G|----------------------------------------------------------------| 
    D|------------------------
  • Tab p/Bajo
                          (4 veces)                                      “La noche…
    G|--------------------------7--7-7-7-7-7----------------|----------------------
    D|-------3-2-----------------------------5--5-5-5-5-5-5-|-------3-2------------
    A|-0-3-0-----3-5--5-5-5-5-5-----------------------------|-0-3-0-----3-5--------
    E|------------------------------------------------------|----------------------
    
            (2 veces)
    G|----------------------|-------------7--7--7--7--7---
    D|----3-----------------|----3------------------------ Parte
    A|-3-----3-5------------|-3-----3-5-------------------   A
    E|----------------------|-----------------------------
    
    …pronto se cierran las puertas…           …y el miedo envuelve el…
    G|-------------------------------------------------------------5---
    D|----------------8-6---6-8-6--------------5-----------------------
    A|--------------------8-------8---------5------5--3--------3-------
    E|-6-6-6-6-6-6-6------------------3--------------------------------
    
    luga
  • +
    ¡Colabora con nosotros!
    Envíanos tu versión de esta canción

Letra de Deseando Destruir Y Matar
La noche está,
ya por caer
la soledad, nos deja ver,
que pronto se cierran las puertas,
y el miedo envuelve el lugar,
mil naves se acercan
deseando destruir y matar.
Y el terror, ya floreció
la mutilación, ya comenzó
se agudiza el llanto y la gente,
padece por un ideal
mil hombres se enfrentan,
sembrando destrucción total.
^^^^
(Repite como Base).
Muere el cobarde,
bañado en su sangre
y el valiente con la sangre enemiga
todos creen en Dios,
ante el miedo incontrolable
y el ardiente metal
penetrándole la carne.
Todo es miedo, muerte,
pena, llanto y dolor
azotes de maldad
que recibe el mundo hoy
su mal los condena
aunque ellos no lo advierten
el infierno goza
con la idiotez de esa gente.
Todo es miedo, muerte,
pena, llanto y dolor
azotes de maldad
que recibe el mundo hoy
corriste a la guerra,
por tu sueldo y por tu gente,
la que te ha olvidado
y aún hostiga tu presente...
para el hombre, no hay mas mal,
que el propio hombre, al engendrar
codicia, ambición e injusticias
que culminan en agresión
fuerza demencial
que domina el mundo de hoy.
FINAL:



© LaCuerda.net · Aviso Legal · Privacidad