Acordes de Guitarra » V »V8 » Hiena de metal (Tab)

Hiena de metal
V8

  • Tab p/Bajo
    Las tres partes que marque sirven para todo el tema. Puse todas las vueltas
    igualmente por las dudas.
    
    
    G|-------------------------------
    D|----------------------5-5--5---
    A|-------------------------------
    E|-6-3----6-3----6-3------------5
    
                                                                                \
    G|------------------------------------------------------------------------- |
    D|------------------------------------------------------------------5--5--- |
    A|------------------------------------------------------------------------- |
    E|-3-3-3-3-3--3--6-3--3-3-3-3-3--3--6-3--3-3-3-3-3--3--6-3--3-3-3-3-------6 |
                                                                                |
           “Ya se acerca infernal, la sangrienta hiena de metal…                |
    G|----------------------------------------------------------------------    |
    D|----------------------------------------------------------------------    |
    A|-----------------------------------------------------
  • +
    ¡Colabora con nosotros!
    Envíanos tu versión de esta canción





© LaCuerda.net · aviso legal · privacidad · contacto
DINAMICO