Acordes de Guitarra » T »los Tres » No sabes que desperdicio tengo en el alma (Tab)

No sabes que desperdicio tengo en el alma
los Tres

Letras, Acordes y Tabs para Guitarra, Bajo y Ukulele

  • Intro: A - C - A - D
    
    A                          C         A - D
    Dime que la vida es fácil
    A                       C          A - D
    Dime que el amor es oro
    A                               C
    Dime que no hay nada que hacer
    A          D
    Y lo haré
    A                         C
    Dime que el tiempo brilla
    A               D      A - C - A - D
    Y no descansaré     Hasta opacarlooooooooo
    A - C - A - D
    A                   F
    No sabes que desperdicio
    G                A - C - A - D
    Tengo en el alma
    
    
  •   B ||----x------------------------------------------------||
      G ||----x------------------------------------------------|| 
      D ||----x---7----5----7----5----7----5----7-------10-----||
      A ||----x---7----5----7----5----7----5----7-------10-----||
      E ||----x---5----3----5----3----5----3----5--------8-----||
    
    
      Riff # 2
    
     e ||----x------------------------------------------------||
     B ||----x------------------------------------------------||
     G ||----x------------------------------------------------|| 
     D ||----x---7----5----7----5----7----5----7-------12-----||
     A ||----x---7----5----7----5----7----5----7-------12-----||
     E ||----x---5----3----5----3----5----3----5-------10-----||
    
    
      Intro     :       Riff  # 1      Riff  # 2            X  2  
    
    1)    
    
  •  B---------I-------------------------------------------------
     G---------I-------------------------------------------------
     D-77--7---I-------------------------------------------------
     A-75--7---I----------------3*---------------5*--------------
     E-55--5---I-55-3-5-3-5-3-5---55-3-5-3-5-3-5-----------------
       XX
    
    
     E-----------------------------------------------------------
     B-----------------------------------------------------------
     G-----------------------------------------------------------
     D-----------------------------------------------------------
     A----------------3*----------------5*-----------------------
     E-55-3-5-3-5-3-5----55-3-5-3-5-3-5--------------------------
     
    DESPUÉS DE ESTO VIENE UN REDOBLE DE CAJA Y SE REPITE EL INTRO(2)
    
        DIME QUE LA VIDA ES FACIL, DIME QUE EL AMOR ES ORO(3)
                   (3)
     E-X//------------//--------------//--------------------I----------------
    
  • Acá va mi versión de una de las mejores canciones de Los Tres.
    Disfrútenla!
    
    INTRO - VERSOS:
    
    G:----------------------------------
    D:----------------------------------
    A:--------------3-----------------5-
    E:5-3-5-3-5-33-5----5-3-5-3-5-33-5--
    
    
    CORO:
    
        (No sabes que desperdicio tengo en el alma...)
    G:----------------------------------
    D:----------------------------------
    A:0*------------------5*------3*----
    E:----------------------------------
    
    G:----------------------------------
    D:----------------------------------
    A:--------------3-----------------5-
    E:5-3-5-3-5-33-5----5-3-5-3-5-33-5--
    
    
        (No sabes que desperdicio tengo en el alma...)
    G:----------------------------------
    D:----------------------------------
    A:0*------------------5*------3*----
    E:----------------------------------
    
    G:-----------------
    D:-----1-0-----1-0-
    A:-3-3-----3-3-----     x3
    E:-----------------
    
    
    SOLO (02:40 - 03:08)
    
     Parte así:
    G:-----------------
    D:-----1-0-----1-0-
    A:-3-3-----3-3-----  x4 (02:40 -
  • +
    ¡Colabora con nosotros!
    Envíanos tu versión de esta canción

Letra de No sabes que desperdicio tengo en el alma
Dime que la vida es fácil
Dime que el amor es oro
Dime que no hay nada que hacer
Y lo haré
Dime que el tiempo brilla
Y no descansaré Hasta opacarlooooooooo
No sabes que desperdicio
Tengo en el alma
Nada en las manos
Salvo dinero
Para desesperarme más
Mátame y viviré
Hasta después de tu muerte
No sabes que desperdicio
Tengo en el alma
Ahora vuelvo a mi vida
Como quien se apresta
Dime que el tiempo brilla y no descansaré
Hasta opacarlo
Hasta opacarlo
Hasta opacarlo
ahi les van los acordes la cancion esta bkn ojala les guste




[No sabes que desperdicio tengo en el alma chords][No sabes que desperdicio tengo en el alma cifra]
© LaCuerda.net · aviso legal · privacidad · es · en · pt · contacto