Acordes de Guitarra » T »los Tres » Me arrendé (Tab)

Me arrendé
los Tres

Letras, Acordes y Tabs para Guitarra, Bajo y Ukulele

  • SOL
    Me arrendé una vida (*)
         RE 
    Para poder matar a la antigua
    SOL
    No esperé a que naciera
         RE                       MIm-DO-SOL-RE (2 veces).
    le di toda mi sangre verdadera.
    
    MIm     DO       SOL   RE 
    Sin buscar encontré algo
    MIm        DO          SOL   RE.
    Que me conmueve cuando lo abro
    MIm           DO         SOL     RE 
    Brilla en mi cara como un cuarzo.
    
    Instrumental:Mim-Do-Sol-Re (2Veces) 
    
    LAm MIm    FA         DO
    El sol volvió al corazón 
    
  • SOL
    Me arrendé una vida 
         DO 
    Para poder matar a la antigua
    SOL
    No esperé a que naciera
         DO                                                   
    le di toda mi sangre verdadera.
    Instrumental:Mim-Sol-Do- 2 cuerda----3h5--3-1-0
                             3 Cuerda--------------2(=)
    
    MIm     SOL       DO  (=)
     Sin buscar encontré algo
    MIm        SOL          DO   (=)
    Que me conmueve cuando lo abro
    MIm           SOL         DO     (=)
    Brilla en mi cara como un cuarzo.
    
    Instrumental:Mim-Sol 1 cuerda----5---4---3- (·)
    MIm-SOL-DO (2 Veces) 
    
  • A)
         DO          DO                  SOL6              SOL6 
     mi|-3---5-3---|-3---5-3-3---3-3---|-0---0-------0---|-----0-------0---|
     si|---------5-|---------5---5-5---|-0---0-------0---|-----0-------0---|
    sol|---0-------|---5-------------0-|---0---0---0---0-|---0---0---0---0-|  
     re|-----------|-------------------|-----------------|-----------------|   
     la|-3---3-3-3-|-3---3-3-3---3-----|-----------------|-----------------|   
     MI|-----------|-------------------|-3-------3-------|-3-------3-------| x2
    
    SOL6
    
    mi |-0-- 
    SI |-0--
    sol|-0--
    RE |-0--
    la |-2--
    MI |-3--
    
    
    A)  DO 
    
  • ----3---5-3-0------3---5-3-0-0---------------------------------------¦
    ----0---0-0-0---0--0---0-0-0-0-3----3--------3-------3----1-0--------¦
    ------0-------0------0---------0----0--------0-------0------------0--¦x2
    ----------------------------------0---0----0---0---0---0--------0----¦
    ----3-------3------3---------3---------------------------------------¦
    --------------------------------3--------3-------3-------------------¦
    
    'Me arrendé una vida para poder matar...'
    
    ----3---5-3-0------3---5-3-0-0---------------------------------------¦
    ----0---0-0-0---0--0---0-0-0-0-3----3--------3-------3----1-0--------¦
    ------0-------0------0---------0----0--------0-------0------------0--¦x2
    ----------------------------------0---0----0---0---0---0--------0----¦
    ----3-------3------3---------3---------------------------------------¦
    --------------------------------3--------3-------3-------------------¦
    
    
    
    
    
    
  • +
    ¡Colabora con nosotros!
    Envíanos tu versión de esta canción

Letra de Me arrendé
Me arrendé una vida (*)
Para poder matar a la antigua
No esperé a que naciera
le di toda mi sangre verdadera.
Sin buscar encontré algo
Que me conmueve cuando lo abro
Brilla en mi cara como un cuarzo.
Instrumental:Mim-Do-Sol-Re (2Veces)
El sol volvió al corazón
Lo salvó de una muerte feroz
El destino me salvará a su vez
De la abulia que prometió volver. (*)
(*) Significa que la canción se repite desde este
punto.




[Me arrendé chords][Me arrendé cifra]
© LaCuerda.net · aviso legal · privacidad · es · en · pt · contacto