Acordes de Guitarra » T »Tremolo » Tal Vez (Tab)

Tal Vez
Tremolo

  • Letra y Acordes
    INTR0 :         MIm - DO - SOL - RE
    
    Arpegios
    
           MIm            DO              SOL             RE
    e-------------------------------------------------------------
    b--0-----0----------1-----1---------0-----0---------3-----3---
    g----0-----0----------0-----0---------0-----0---------2-----2-
    d------2----------------2---------------0---------------0-----
    a--2----------------3---------------2---------------0---------
    E-------------------------------------------------------------
    
    MIm   DO       SOL     RE
    Solo pronuncio tu nombre………
    MIm    DO         SOL    RE
    en las noches mas oscuras…………
     MIm  DO         SOL   RE
    aLfín solo yo y a luna   ha……
    MIm    DO          SOL    RE
    Donde  nadie puede escucharme……
    
  • Tablatura
    A#5
    4)---8-----
    5)---8-----
    6)-6-------
    
    INTRO:
    Dm - A# - F - C
    
    Arpeo
    
           Dm         A#            F            C
    e-1------1--------1------1------1-----1------0------0-----
    b---3------3--------3------3------1-----1------1------1---
    g-----2------2--------3------3------3-----3------0------0-
    d-0---------------3---------------------------------------
    a-------------------------------3------------3------------
    E---------------------------------------------------------
    
    Dm       A#           F       C
    Solo pronuncio tu nombre………
    
  • +
    ¡Colabora con nosotros!
    Envíanos tu versión de esta canción

Letra de Tal Vez
Arpegios
en las noches mas oscuras…………
aLfín solo yo y a luna ha……
Donde nadie puede escucharme……
soñé tu cuerpo y tu piel
junto a mí abrazándome
Yo solo recuerdo que ame
tal vez.. de mi ya ni te acuerdes
tal ves.. ya no te reiras de mi
tal ves.. mi nombre ni te acuerdes
tal vez.. tan solo yo te ame………
se que ahora estas sola aaaaa
triste y abandonada burladaaaaa
me cambiaste por tu ambiciónnnn
y ahora no tienes nada nadaaaa
CORO……………
Te la dedico ati mocosa.. decir el nombre estaría demás………una vez te kize…



© LaCuerda.net · aviso legal · privacidad · contacto