Acordes de Guitarra » T »Tremolo » Enamorado de un ángel (Tab)

Enamorado de un ángel
Tremolo

  • Letra y Acordes
    Intro: A  E  F#m  D 
    
    E-------12—13—12—12—15—15—13—12—12---------13-12---
    B-----------------------------------15—13--13 ----- 
    G--------------------------------------------------
    D--------------------------------------------------
    A--------------------------------------------------
    E--------------------------------------------------
    
    
    E-------12—13—12—12—15—15—13—12—12---------13-12---
    B-----------------------------------15—13--13 ----- 
    G--------------------------------------------------
    D--------------------------------------------------
    A--------------------------------------------------
    E--------------------------------------------------
    
    
    A                    E
      Es tan difícil creer que a quien quiero
    
  • Tablatura
    B=   bend half
    br^= bend´n Full 
    V~=  vibrato
    
                     ACORDES
       A           E          F#m          D 
    \------/   \------/    \------/    \------/
     ||||||     |||o||      ||||||      |||||| 
     ||ooo|     |oo|||      oooooo      |||o|o 
     ||||||     ||||||      ||||||      ||||o|
     ||||||     ||||||      |oo|||      ||||||
    
    
    
       A5         E5           F#5         D5 
     \---xxx/   \---xxx/    \---xxx/    \x---xx/
    V o|||||     ||||||      ||||||    V |o|||| 
      ||||||     |oo|||      o|||||      |||||| 
      |oo|||     ||||||      ||||||      ||oo||
      ||||||     ||||||      |oo|||      ||||||
    
  • Tablatura
       LA       MI  FA#m  RE      LA5  MI5  FAm5 RE5
    1: |0|  |0|  |2|  |2|  1:  x    x    x    x
    2: |2|      |0|  |2|  |3|  2:  x    x    x    x
    3: |2|      |1|  |2|  |2|  3:  x    x    x   |7|
    4: |2|      |2|  |4|  |0|  4: |7|  |2|  |4|  |7|
    5: |0|      |2|  |4|  |0|  5: |7|  |2|  |4|  |5|
    6: |0|      |0|  |2|  |0|  6: |5|  |0|  |2|   x 
    
    (Estos son los Arpegios, se tocan como INTRO 
     y mientras oyes al vocalista,excepto en el 
     coro)
    
           LA           -          MI               
    1:|----------------   -----------------      
    2:|--------3+2-----   ----------------- 
    3:|----2-------2---   -----1---2+1----- 
    4:|--2---2-------2-   ---2---2-----2--- 
    5:|0---------------   -2-------------2- 
    6:|----------------   ----------------- 
    
    
  • Tablatura
       A           E          F#m          D         D
    \x=====/   \======/    \======/    \x=====/   \======/
     ||||||     |||o||      ||||||      ||||||     ||||||
     ||ooo|     |oo|||      oooooo      |ooooo  ó  |||o|o
     ||||||     ||||||      ||||||      ||||o|     ||||o|
     ||||||     ||||||      |oo|||      ||o|||     ||||||
                                        |o||||
    
       A          E          F#m          D    ó     D
    e|-0--     e|-0--      e|-2--      e|-2--     e|-2--
    b|-2--     b|-0--      b|-2--      b|-3--     b|-3--
    g|-2--     g|-1--      g|-2--      g|-2--     g|-2--
    D|-2--     D|-2--      D|-4--      D|-4--     D|-0--
    A|-0--     A|-2--      A|-4--      A|-5--     A|-0--
    E|----     E|-0--      E|-2--      E|----     E|----
    
       A5         E5         E5           F#5        D5          C#5         B5
     \===xxx/   \x==xxx/   \o===xx/    \===xxx/   \x===xx/    \x===xx/    \===xxx/
      o|||||V    |o||||     ||||||VII   ||||||     |o||||V     |o||||IV    o|||||VII
      ||||||     ||||||  ó  |oo|||      o|||||     ||||||      ||||||      ||||||
    
  • Tablatura
    e-----10-9--10--12--10-12--10--9--9--12--10
    b--12----------------------------------------
    g--------------------------------------------
    d---------------------------------------------
    a----------------------------------------------
    e------------------------------------------------
    
    e-------10--9------10---9---------10h12---10-9----
    b---12-----------12------------12-----------------
    g-------------------------------------------------
                 A               E               F#m
    e--------10-9~~---10-12-10h12br^-10--9-9~~------------
    b------------------------------------------12--10~~---
    g-----------------------------------------------------
                    D                               A
    e-------10--9------10---9-----10---9------10--9v~~~--
    b---12----------12--------12-----------12------------
    g----------------------------------------------------s el punteo de medio va haci
    
    
    
  • Tablatura
    AFINACION: E B G D A E  (Standard)
    
                           ACORDES  USADOS EN ESTA ROLAZA
                          ================================
    
             A          E          F#m          D          D         Dsus4      Dsus2     Aadd9
          x=====/   ======/    ======/    x=====/   ======/   ======/   =====o/   ====oo/
           ||||||     |||o||      ||||||      ||||||     ||||||     ||||||     ||||||     o|||||V
           ||ooo|     |oo|||      oooooo      |ooooo     |||o|o     |||o||     |||o||     |||o||
           ||||||     ||||||      ||||||      ||||o|  ó  ||||o|     ||||oo     ||||o|     |oo|||
           ||||||     ||||||      |oo|||      ||o|||     ||||||     ||||||     ||||||     ||||||
                                              |o||||
                                                  ^
                                                  |_ Este D solo se utiliza en los arpegios
    
    
                                        Explicacion de la TABLATURA
                               =============================
    
                           h =   hammer on                           p =   pull-off
    
  • Tab p/Bajo
    Bueno, etoy corrigiendo algunos detalles de esta tablatura que
    hice ace mucho tiempo, espero ke sea facil de entender.
    
    -Nota: Cuando aparecen entre parentesis; por ejemplo sol
    
    E-----3(3)-----
    
    el numero entre parentersis significa ke dejen sonar y vibrando esa nota; y
    no ke tres veces tokaras esa nota.
    
    
    INTRO:
    
    G--|---------------------------------------------------|
    D--|---------------------------------------------------|
    A--|--------------7(7)---------9(9)--------5(5)--------|
    E--|--5(5)---------------------------------------------|
    
    G--|---------------------------------------------------|
    D--|---------------------------------------------------|
    A--|--------------7(7)---------9(9)------5(5)----5/1---|
    E--|--5(5)---------------------------------------------|
    
    Solo 1 Guitarra
    
    G--|---------------------------------------------------|
    D--|---------------------------------------------------|
    A--|------------7-7---7------9-9---97----5-5----75-----| x2
    E--|--5-5--67--------5-5----------5
  • +
    ¡Colabora con nosotros!
    Envíanos tu versión de esta canción
  • Tutorial
    Enamorado de un ángel - TRÉMOLO
    4:44

Letra de Enamorado de un ángel
Es tan difícil creer que a quien quiero
es increíble como apareces
Dentro en mi mente cuando no estoy despierto

Siempre apareces como un ángel
entre mis sueños
Siempre apareces como un ángel
entre mis sueños
Ella sabe como consolarme
cuando me siento mal y estoy desesperado
yo la invito a una cita más tarde
y me quedo pensando hasta la noche
Siempre apareces como un ángel
entre mis sueños
bella como el arte simple como el aire
que respiro
Siempre apareces como un ángel
entre mis sueños
bella como el arte simple como el aire
que respiro
Al despertar con ansias espero
otra noche más para poder mirarlaaaaa

Siempre apareces como un ángel
entre mis sueños
bella como el arte simple como el aire
que respiro
Siempre apareces como un ángel
entre mis sueños
bella como el arte simple como el aire
que respiro
Si tienen dudas escriban a eldestripadorpe@yahoo.es
Mi nombre es Juan Carlos YO MISMO LES RESPONDERE
PARA TI KATTIA VIVA EL HEAVI METAL



© LaCuerda.net · aviso legal · privacidad · contacto