Acordes de Guitarra » T »Tremolo » Rosas Negras (Tab)

Rosas Negras
Tremolo

Letras, Notas, Punteos, Tablaturas y Acordes de Guitarra (Tabs & Chords)

  • Letra y Acordes
     A   D      G
    golpeas mi corazon
     A    D     G
    no dire que me muero
     A   D      G
    cuendo te ries
     A   D   G
    
    
    PRECORO:
    
    se que no imaginas
    C5  G5    A5
    algo mas en mi vos
    G5          C5
    que te acompaña
    E5      A5
    a  buscar  otro amor
     F5          G5
    
    
  • Letra y Acordes
    Am D G C B Am
    
    e|---5-------8-2-----2-3-3--------------------------|
    B|---5-----5---3---3---3-3------------1-3H5P3-H2----|
    G|*------5-------2--------------0-----------------*-|
    D|*----7----------------------2---2---------------*-|
    A|---7---------0---------2-2H3------3---------------|
    E|--------------------------------------------------|
    
    INTRO 2
    
    A5 D5 G5 C5 (B5 A5)
    
    e|---------------------|
    B|-3H5*-3P2-0H2-2H3----|
    G|---------------------|
    D|---------------------|............. aun no la saco
    A|---------------------|
    E|---------------------|
    
    
  • Tablatura
    B/------5---5----6----------8-------3---3(5)---------5------
    G/--------5---------7-----------------4----------------5^---
    D/--------------------7--7-------0-----------------------7--
    A/----------7----5------------------------------------------
    E/----5-----------------------------------------------------
    
    e/----5-----5-8----------5-------3----------3(5)--5---------
    B/------5--------6----------8-------3---3(5)---------5------
    G/--------5---------7-----------------4----------------5^---
    D/--------------------7--7-------0-----------------------7--
    A/----------7----5------------------------------------------
    E/----5-----------------------------------------------------
    
    Solo
    
    e/------------------------------------------------------
    B/------------------------------------------------------
    G/----7^-7^-5---5(7)---------5--------------------------
    D/------------7---------5-5----5^-----------------5-----
    A/-------------------5^-----------7--7^-5(3)-3(5)-------
    
  • Tab p/Bajo
    		TREMOLO - ROSAS NEGRAS
    		======================
    
    Esta va junto a la anterior transcripcion para guitarra
    
    INTRO 1
    
    
    G|-----------------|
    D|*---------------*|
    A|*---7-5-5-------*|
    E|--5-------3-0-5--|
    
    
    INTRO 2
    
    G|------------------------|
    D|*----------------------*|
    A|*-----5---------3-(2)--*|
    E|--5-------3---5---------|
    
    
    VERSOS
    
    G|------------------|
    D|*----------------*|
    A|*-----5--5-------*|
    E|--5--------3-3-3--|
    
    PRECORO:
    
    G|-----------------------|
    D|*---------------------*|
    A|*-3-------------------*|
    E|------3--3-5--5-5------|
    
    G|-----------------------|
    D|*---------------------*|
    A|*-----------3--3-3--*-*|
    E|---3--3---3------------|
    
    G|-----------------------|
    D|*---------------------*|
    A|*---------------------*|
    E|--0---5-5---3-3-3-3----|
    
    G|-----------------------|
    D|*---------------------*|
    A|*---------------------*|
    E|--3-3-3-3---7777-7777--|
    
    
    INTRO 1
    
    VERSOS
    
    PRECORO
    
    CORO:
    
    G|------------------------|
    D|*----
  • +
    ¡Colabora con nosotros!
    Envíanos tu versión de esta canción

Letra de Rosas Negras
golpeas mi corazon
no dire que me muero
cuendo te ries
PRECORO:
se que no imaginas
algo mas en mi vos
que te acompaña
a buscar otro amor
soñare en mi cuarto
contigo si mi amor
rosare tu pelo
con mi suspiro
PRECORO:
se que no imaginas
algo mas en mi vos
que te acompaña
a buscar otro amor
no dire que mi alma llora por
cuendo ries nena
te hechare rosas negras depues
ok gente ya les mande mi cancion cualquier cancion que
_quieran que saque me escriban a mic orreo diego17_276@hotmail.com
yaya chau cualquier cosa ami correo ok chau los puenteos los mando despues



© LaCuerda.net · Aviso Legal · Privacidad