Acordes de Guitarra » T »Tremolo » Marchate (Tab)

Marchate
Tremolo

Letras, Notas, Punteos, Tablaturas y Acordes de Guitarra (Tabs & Chords)

  • Letra y Acordes
    G     D       E       C             
    y me niegas tus culpas 
    G     D       E       C             
    ya no importa lo que digas 
    G     D       E       C             
    se que nunca me amaras 
    G     D       E       C     
    
    Vamos de frente al pre-coro :
    A     E        F*      D                          
    No te pido que me ames o me olvides
    A     E        F*      D                       
    quiero que recuerdes cuanto te he querido
    A     E        F*      D             
               
    ahora el coro :
    
    MARCHATE SAL YA DE MI MENTE 
    Em       C       G         D
    MARCHATE NO VUELVAS A VERMEEEEE.        
    
  • Letra y Acordes
       G        D      Em   C               
    E|-----1----------0h1-----0-----0---0-------------------|
    B|-------------------3----0------1---1------------------|
    G|--------------------2---0-------0---0-----------------|
    D|----0------0------------2----2------------------------|
    A|---2----0-2-------------2---3-------------------------|
    E|--3---------------------0-----------------------------| el riff es de                 
                                        tarea
    VERSO:
       
       Si en tinieblas te ocultas 
    G               D        
       y me niegas tus culpas 
    Em                C         
       ya no importa lo que digas 
    G            D         Em    
       se que nunca me amaras 
                 C         G
    
      Como dejan heridas
    
  • Letra y Acordes
      G.. 
       1.-----------
       2.-----------
       3.-----------
       4.-----------
       5.-2-3-------
       6.-----------
     
      D - Em - C - G 
    
       1.-----------
       2.-----------
       3.-----------
       4.-----------
       5.-2-3-------
       6.-----------
     
      D - Em - C - G   
      
     1.-19-19-17-15-19-17-1-15---------------------(15)------15---------15-------15-19-22-20-19-------
    
  • Tablatura
     B------3----------------0-------0------1--1-------
     G------0------------------------0-----0-----0-----
     D-------------0-------------------------------2---
     A----2-----2-3-(0)------------2-----3-------------
     E--3------------------------0---------------------
    
    
    
    1ER SOLO:
    
     e-19-19-17p15-19-19-17p15--------------------------15------------17h19------------19h20-22b--20p19------------
     B-------------------------17-15h17------------15-----17--17h19h20-----20--17h19h20----------------20---22b-20-
     G---------------------------------16--16-16h17--16------------------------------------------------------------
     D-------------------------------------------------------------------------------------------------------------
     A-------------------------------------------------------------------------------------------------------------
     E-------------------------------------------------------------------------------------------------------------
    
    
    2DO SOLO:
    
    
  • Tablatura
     G                D             Em                C
          E------
          B------
          G------
          D------
          A-2--3-
          E------
    
    Esto dos veces
    
    1 solo:
    
    e--19--19--17--15--19--17--1--15--------------------------------------------15v-------------
    b----------------------------------------17-15--17-------------------15-----------17--------
    g------------------------------------------------------16vv--16--17--------16---------------
    d--------------------------------------------------------------------------------------------
    a--------------------------------------------------------------------------------------------
    E--------------------------------------------------------------------------------------------
    
    e-------------15-----------------15-----------------15-------19-22-20-19--------------------
    
  • +
    ¡Colabora con nosotros!
    Envíanos tu versión de esta canción

Letra de Marchate
y me niegas tus culpas
ya no importa lo que digas
se que nunca me amaras
Vamos de frente al pre-coro :
No te pido que me ames o me olvides
quiero que recuerdes cuanto te he querido

ahora el coro :
MARCHATE SAL YA DE MI MENTE
MARCHATE NO VUELVAS A VERMEEEEE.
ESO ES TODO LUEGO LES MANDO EL TAB DE LA INTRODUCCION
LO ESTOY PERFECCIONANDO ,YA SABEN CUALQUIER COSA
ESCRIBANME A KYO2039@LATINMAIL.COM



© LaCuerda.net · Aviso Legal · Privacidad