Acordes de Guitarra » T »Tremolo » Enamorado de una ángel (Tab)

Enamorado de una ángel
Tremolo

  • Letra y Acordes
        A                      E
    solo se hace realidad en mis sueños
            F#m               D
    es increible como apareces
       A                  E
    en mi mente cuando estoy durmiendo.
          F#m                    D
    CORO
    
    Siempre apareces como un ángel
      A               E
    entre mis sueños
       F#m     D
    bella como el arte
     A            E
    simple como el aire que respiro.
    F#m                         D
    
    
    Lo mismo se repite en el otro verso
    
  • Tablatura
       LA                MIm
    e----------------------------------------------
    B----------3-2---------------0-----------------
    G------2-------2---------1-----1---1-----------
    D----2---2-------2-----2---2-----2-------------
    A--0-----------------2-------------------------
    E----------------------------------------------
    
    
    
       FA#m              RE
    e----------------------------------------------
    B----------2-----------------3-----------------
    G------2-----2---2-------2-----2---2-----------
    D----4---4-----4-------0---0-----0-------------
    A--4-----------------0-------------------------
    E----------------------------------------------
    
    Se hace dos veces, luego entra la otra guitarra con:
    
    
  • Tab p/Bajo
    Bueno, etoy corrigiendo algunos detalles de esta tablatura que
    hice ace mucho tiempo, espero ke sea facil de entender.
    
    Cuando aparece el numero entre parentesis; por ejemplo la nota "sol"
    
    E-----3(3)-----
    
    No significa que 3 veces tocaras la misma nota, sino, ke dejen sonar
    la cuerda de la nota sol.
    
    
    INTRO:
    
    G--|---------------------------------------------------|
    D--|---------------------------------------------------|
    A--|--------------7(7)---------9(9)--------5(5)--------|
    E--|--5(5)---------------------------------------------|
    
    G--|---------------------------------------------------|
    D--|---------------------------------------------------|
    A--|--------------7(7)---------9(9)------5(5)----5/1---|
    E--|--5(5)---------------------------------------------|
    
    Solo 1 Guitarra
    
    G--|---------------------------------------------------|
    D--|---------------------------------------------------|
    A--|------------7-7---7------9-9---97----5-5----75-----| x2
    E--|--5-5--67--------5-5----------5----
  • +
    ¡Colabora con nosotros!
    Envíanos tu versión de esta canción

Letra de Enamorado de una ángel
es increible como apareces
en mi mente cuando estoy durmiendo.
Siempre apareces como un ángel
entre mis sueños
bella como el arte
simple como el aire que respiro.
Lo mismo se repite en el otro verso



© LaCuerda.net · aviso legal · privacidad · contacto