Acordes de Guitarra » T »Tremolo » Recordaba (Tab)

Recordaba
Tremolo

  • Letra y Acordes
    G-Bm- C-D
    
    G         Bm
    Estoy cubierto por un sentimiento
     C               D
    Que me hace a veces recordar
    
    G             Bm
    Y con el tiempo  empezaba a sentir
       C                                 D…
    Encadenado sin esperanza y sin libertad
    
    ...D         G         Bm
       Anoche recordaba  nuestro primer beso
          C             D
       Recordaba tus labios temblaban
       D          G         Bm
        Tus manos se aferraban a mi espalda
             C          D
       No quiero olvidar, quisiera volver a entrar.
    
  • Tablatura
    ~~                     ~~
    |-18----19-22-23b24r23---23--19----------|
    |-------------------------------20-------|
    |----------------------------------21----|
    |----------------------------------------|
    |----------------------------------------|
    |----------------------------------------|
    
                        ~~
    |--------------------------------------18b19r18-------|
    |-------------------------------19-/22----------20----|
    |-19b21r(19)p17-19----------19------------------------|
    |------------------22----19---------------------------|
    |---------------------21------------------------------|
    |-----------------------------------------------------|
    
      ~~
    |----18b19r18-------18b19r18--------------|
    |-------------20-------------20-----20----|
    |-21-------------21--------------21-------|
    |-----------------------------------------|
    |-----------------------------------------|
    |-----------------------------------------|
    
                                                   ~~
    |----------------------------------
  • +
    ¡Colabora con nosotros!
    Envíanos tu versión de esta canción

Letra de Recordaba
Estoy cubierto por un sentimiento
Que me hace a veces recordar
Y con el tiempo empezaba a sentir
Encadenado sin esperanza y sin libertad
Anoche recordaba nuestro primer beso
Recordaba tus labios temblaban
Tus manos se aferraban a mi espalda
No quiero olvidar, quisiera volver a entrar.
Soñaba verte abrasada en mi
Pero la bruma y la tormenta nos separo
Era solo un sueño contra eso no puedo luchar
Pero despierto siempre siento que es igual.
Ah ah ah
Dame solo una noche sin vida
Vida amor .
Iras bajo la luna llena pasaras
Sobre hojas secas, na, na na na .
Nos moriremos todos
Pasado y futuro solo importa el momento
No importa nada mas
Después habra lugar para hablar.
Uh...uh...eh je
Oh uh who oh uh uh uh.
Eso es todo cualquier consulta a mi e-mail



© LaCuerda.net · aviso legal · privacidad · contacto
DINAMICO