Tablatura para Bajo de Soda Stereo: Hombre al Agua
Conexión · Inscripción
Letras y Acordes
Pantalla Completa
Imprimir
Versión Texto
Añadir Favorito
Otras Versiones

Mostrar Diagramas
Desfile Automático
Formato del Texto


Hombre al Agua(BAJ)

Soda Stereo

calidad:
soda0282
AUTOR: Gustavo Cerati, Daniel Melero
ALBUM: Rex Mix (1990)
Enviado por Ariel, basado en Sebastian
aki esta el bajo de esta rola perfecto y "sin errores"
esta bien facil. cualkier cosa mi email, tengo varias rolas
mas de soda y un monton de otros grupos sebaska_182@hotmail.com

verso

1---------------------|-----------------------|
2---------------------|---------------5-------|
3--7-5-----5-7------5-|--7-5-----5-7-----7-5--|
4-------7------5-7----|-------7---------------|

1-------------------|--------------------||
2-------------------|--------------------||
3---------4-------5-|----4---2---4---5-4-||
4--5-3-5-----5-3----|------5---5---5-----||

puente

1----------|----------|-----|-----|-----|-----|
2----------|----------|-----|-----|-----|-----|
3-33333333-|-33333333-|-5-5-|-----|-----|---5-|
4----------|----------|-----|-5-5-|-2-2-|-5---|

1----------|----------|----------|----------||
2----------|----------|----------|----------||
3-33333333-|-33333333-|----------|----------||
4----------|----------|-55555555-|-55555555-||

Coro

1------------------------------------|
2------2------5------7-------10------|  -(x4)-
3------------------------------------|
4--00-----33-----55------88----------|

cambio

1----------|------------------|--------|
2----------|------------------|--------|
3-22222222-|-00------22222222-|-55-----|
4----------|-----00-----------|-----00-|

1----------|------------------------|
2----------|------------------------|
3----------|-----55--0(dejar sonar)-|
4-22222222-|-00---------------------|
Este fichero es trabajo propio de su transcriptor y representa su interpretación personal de la canción. El material contenido en esta página es
para exclusivo uso privado, por lo que se prohibe su reproducción o retransmisión, así como su uso para fines comerciales.
© LaCuerda.net · Aviso Legal · Privacidad