Tablatura para Bajo de Soda Stereo: Estoy azulado
Conexión · Inscripción
Letras y Acordes
Pantalla Completa
Imprimir
Versión Texto
Añadir Favorito
Otras Versiones

Mostrar Diagramas
Desfile Automático
Formato del Texto


Estoy azulado(BAJ)

Soda Stereo

calidad:
soda0243
AUTOR: Gustavo Cerati, R. Coleman
ALBUM: Ruido Blanco
Enviado por Mariano
Temaso... Bajo bien "Slappeado"

El tema empieza con ese exquisito saxo...

1:08
Entra el bajo - Todo Slap y Pop (P)

gI-----------------------------------------I (X3)
DIº---------------------------------------ºI       queda bien con o
AIº-5-----------2-3-4-5-----------2-3-4-5-ºI     sin el 4 pueden ser
EI----0-1-0-3--3--------0-1-0-3--3---------I   dos 3 o un 3 y un
                                                silencio

g------------
D------------
A------------
E-0-1-0-3-3--


1:38
Estrofa 1
               P
g--------------4-------
D---------------------- (X3) Tratar de darle ritmo y mutear mas (X)
A--5----------2-X-3-5--     o meterle algun otro pasaje hasta el Re.
E----0-1-0-3-X---------

"Sola, vino a mi ficción, sin dudar acompañarme..."
                 P
g---------------------
D----------------5----
A--5------------------
E----0-1-0-3-0-X------


               P
g--------------4-------
D---------------------- (X3)  La estructura es igual cambia el tiempo
A--5----------2-X-3-5--      del Si con pop que a veces es mas corto
E----0-1-0-3-X---------      y seco y otras mas largo...

"Signos oh sin traducción, silencio insuperable..."

g------------------
D------------------
A--5---------------
E----0-1-0-3-3-1---


2:08

"Cuanto habre cambiado que se habra gastado, podria comunicarme
pero siento tanto la erosión.."

g---------------------------------------------
D---------------------------------------------
A-/7-7--------------------------/7-77 7-------
E------05-05/--1-1-1-1--3-3-3-3--------5_7_5--


2:18


g-------------------------------------------------------------------
D-------------------------------------------------------------------
A-5-----------2-3-4-5-----------2-3-4-5-----------2-3-4-5-----------
E---0-1-0-3--3--------0-1-0-3--3--------0-1-0-3--3--------0-1-0-3-3-


2:33

"Cerca de su atracción,

               P
g--------------4-------
D---------------------- (X3)
A--5----------2-X-3-5--
E----0-1-0-3-X---------


tropiezo con mis manos

                 P
g--------------------
D----------------5---
A--5-----------------
E----0-1-0-3-0-3-----


Sufro otra mutación, un color azulado...

               P
g--------------4-------
D---------------------- (X3)
A--5----------2-X-3-5--
E----0-1-0-3-X---------

g------------------
D------------------
A--5---------------
E----0-1-0-3-3-1---


3:03

"Algo esta ligandome cuando estoy azulado quiero recuperarme a su
lado"

g---------------------------------------------------------------
D---------------------------------------------------------------
A--2---------3--------2-------------------2-----3------5-----3--
E--------------------------------1------------------------------


3:20


gI-----------------------------------------I (X3)
DIº---------------------------------------ºI
AIº-5-----------2-3-4-5-----------2-3-4-5-ºI
EI----0-1-0-3--3--------0-1-0-3--3---------I

g-------------
D-------------
A-------------
E-0-1-0-3-XX--


3:50

"A su lado cambiaria de color, a tu lado ohuoo...

g-----------------------------------------------------------
D-----------------------------------------------------------
A-/7-7--------------------------/7-77-----------------------
E------05-05/--1-1-1-1--3-3-3-3-------5-55/-1-11-1--3-33----

 A su lado cambiaria de color, a tu lado ohuoo...

g-----------------------------------------------------------
D-----------------------------------------------------------
A-/7-7--------------------------/7-77-----------------------
E------05-05/--1-1-1-1--3-3-3-3-------5-55/-1-11-1--3-33----


4:18

"Porque algo esta ligandome cuando estoy azulado quiero recuperarme.

g------------------------------------------------------------
D------------------------------------------------------------
A--2---------3--------2-------------------2-----3------5/----
E--------------------------------1---------------------------


Slap y final

g----4--------4--------4-----
D----------------------------
A--2--3-5---2--3-5---2--3-5--
E----------------------------

g----4-----------------------------------------------------------
D----------------------------------------------------------------
A--2--2-3-5----------2-3-4-5-----------2-3-4-5-----------2-3-4-5-
E----------0-1-0-3--3--------0-1-0-3--3--------0-1-0-3--3--------

g--------------------------------------------------------------
D--------------------------------------------------------------
A--------------------------------------------------------------
E--0-1-0-3--0-3-2-0-11111111--333333333--111111111--333333333--

g------------------------------------
D------------------------------------
A------------------------------------
E--111111111--3333333333--111111111--

Asi termina esta odisea, ja, para mi y para quien q le plazca tocar
un poco el bajo sin preocuparse por nada mas q el sonido...


Mariano Bria - Jesus Maria Cba-

              **** MARIANOROCKEN@HOTMAIL.COM ****
Este fichero es trabajo propio de su transcriptor y representa su interpretación personal de la canción. El material contenido en esta página es
para exclusivo uso privado, por lo que se prohibe su reproducción o retransmisión, así como su uso para fines comerciales.
© LaCuerda.net · Aviso Legal · Privacidad