Acordes de Guitarra » S »Soda Stereo » Disco eterno (unplugged) (Tab)

Disco eterno (unplugged)
Soda Stereo

Letras, Acordes y Tabs para Guitarra, Bajo y Ukulele

  • e)-(7)---3-5---7b9--
    B)-(7)--------------
    G)-(7)--------------
    D)-(7)--------------
    A)-(7)--------------
    E)------------------
    
    Riff:
    
    1)---------------------------------------------|
    2)---------------------------------------------| X4
    3)-------------------5-4--------------------2-0|
    4)--------3-3~------------------3-3h5-5-3------|
    5)--3-3h5------5-3-0------3-3h5-----------5----| X4
    6)---------------------------------------------|
    
    1)-------------------------------3-3-3-3--------------|
    2)------------6-5-3-5-3----------3-3-3-3--------------|
    3)----------------------4-4-4h5~-5-5-5-5--4-4h5p4-----|
    4)--------3-0-------------------------------------5-0-|
    
  • +
    ¡Colabora con nosotros!
    Envíanos tu versión de esta canción

Letra de Disco eterno (unplugged)
Riff:
Me salí
fuera de contexto
Practicar
no te hace perfecto
poner un disco eterno
y moverme tornasol
Un espíritu
a veces seguro
otras veces incierto
quiero descubrir
por que este deseo crece...
Entre los dos
pasa un meridiano
latitud (latitud)
de vidas paralelas
Abrir el sueño Stereo
crear la dimensión
Sin disimular
me voy desnudando
con cada sonido
alta fidelidad
cuando este deseo crece...
Un espíritu
a veces seguro
otras veces incierto
vengo a descubrir
por que este deseo crece...




[Disco eterno (unplugged) chords][Disco eterno (unplugged) cifra]
© LaCuerda.net · aviso legal · privacidad · es · en · pt · contacto
DINAMICO