Tablatura para Guitarra de Soda Stereo: Estoy azulado
Conexión · Inscripción
Letras y Acordes
Pantalla Completa
Imprimir
Versión Texto
Añadir Favorito
Otras Versiones

Mostrar Diagramas
Desfile Automático
Manipular Acordes
Formato del Texto


Estoy azulado(TAB)

Soda Stereo

calidad:
soda0242
AUTOR: Gustavo Cerati, R. Coleman
ALBUM: Ruido Blanco
Enviado por felipe
arpegios de la intro (léelos bien y veras que es fácil)
1º parte intro
e----------------------------------------------------------------0-----------------------13------------15-----    (se tocan juntas y es la parte rápida)
b--------------------1----------------0-----------------3-------------------------------13------------15------   
g--------------0-----------------0----------------2-----------------------------------------------------------
d-------3-------------------3---------------------------------------------------------------------------------
a-------------------------------------------------------------------------------------------------------------
e-------------------------------------------------------------------------------------------------------------


2º parte intro
e-------------------8--------------7-----------------12------------13------12--------------------------|
b---------------8-------------8---------------15-------------------13------12--------------------------|
g--------10------------10-----------14-----------------------------------------------------------------|
d------------------------------------------------------------------------------------------------------|
a------------------------------------------------------------------------------------------------------|
e------------------------------------------------------------------------------------------------------|


parte 1
sola vino a...
e------------------------------------------------------------------------------------------------------------
b------------------------------------------------------------------------------------------------------------
g---------------0----------------------0------------------------0-----------------------0--------------------
d----------3-------3--------------3--------3--------------3-------3-------------3--------3-------------------
a------5--------------5-------3----------------3------2---------------2----3-----------------3---------------
e------------------------------------------------------------------------------------------------------------

MI ficcion e------------------------------------------------------------------------------------------------------------| b--------------------------------------------1-----------------------3----------------------1----------------| g-------------0-----------------------2--------2---------------4-------4-------------2--------2--------------| d---------3------3------------3--------------------3-----5----------------5----3----------------3------------| a---5---------------5----------------------------------------------------------------------------------------| e------------------------------------------------------------------------------------------------------------| se repite es mismo arpegio muchas veces aunque Cerati ocupa un efecto llamado dilate (ecos) y que hace que suene aun mejor... arpegios sola vino a mi ficción, sin dudar a acompañarme signos sin traducción, silencio insuperable
MIm LA FA cuanto habré cambiado, que se haba gastado
MIm SOL LA podría comunicarme pero siendo tanto la erosión (acompañada de la intro) arpegios cerca de su atracción, tropiezo con mis manos sufro ultra mutación, un color azulado
SIm DO SIm DO SIm DO algo esta ligándome cuando estoy azulado quiero recuperarme
simm DO REm...( muchas veces )…intro… azulado
MIm-LA FA SOL MIm LA FA azulado cambiaria de color, a tu lado ouh... por que
simm DO algo esta ligándome cuando estoy azulado quiero recuperarme estoy azulado (acompañado de la intro) hola amigos de atame.org aquí les mando un tab de soda stereo para que lo gocen, están todos los arpegios y el tema esta igual, suena exactamente igual así que espero sepan sacar provecho..cualquier dudita me escriben al correo...
Este fichero es trabajo propio de su transcriptor y representa su interpretación personal de la canción. El material contenido en esta página es
para exclusivo uso privado, por lo que se prohibe su reproducción o retransmisión, así como su uso para fines comerciales.

© LaCuerda.net · Aviso Legal · Privacidad