Tab p/Bajo de Soda Stereo: Entre caníbales (unplugged)
Cerati
Comfort y Música para Volar [1996]
Entre Canibales - version MTV Unplugged p/bajo

Basicamente son 4 patrones que se repiten combinadamente en algunas ocasiones.

Escuchenla y les resultada facil e intuitivamente
encontrar el "feeling" que lleva el bajo.


Intro:
G|-------------------------------------|x4
D|-------------------------------------|
A|--7---0-2-3----------5---------------|
E|--------------------------2-3--5-----|

G|-------------------------------------|
D|-------------------------------------|
A|--3-----5-3-----5-3------5-3----5----|
E|-------------------------------------|


"Una eternidad..."
G|-------------------------------------|x4
D|-------------------------------------|
A|--7---0-2-3----------5---------------|
E|--------------------------2-3--5-----|


Pre Coro:

G|-------------------------------------|
D|-------------------------------------|
A|--3-3---------3---3-3----------3-----|
E|-------0-3-5----5-------0-3-5----5---|

G|-------------------------------------|
D|-------------------------------------|
A|--5-5---------3---5-5----------3-----|
E|-------0-3-5----5-------0-3-5----5---|

                    "Aaaahhhhhhh......."
G|-------------------------------------|
D|-------------------------------------|
A|-------------------------------------|
E|--0-0-0-0-0-0-0-0-0-0-0-0-0-0-0-0-0--|


Coro:
G|-------------------------------------|x7
D|-------------------------------------|
A|-----------------5~------------------|
E|---5~---3~-----3---------0~----0-3---|


G|-------------------------------------|
D|-------------------------------------|
A|--3-----5-3-----5-3------5-3----5----|
E|-------------------------------------|

GRACIAS y que les sea util!!!
Cualquier comentario o sugerencia es MUY bien venido...
           _
          |)`
          | |
          | |_____
         /    (]__)
        /    (]___)
       /    (]___)
      /   ___(]_)
     /   /
Este fichero es trabajo propio de su transcriptor y representa su interpretación personal de la canción. El material contenido en esta página es
para exclusivo uso privado, por lo que se prohibe su reproducción o retransmisión, así como su uso para fines comerciales.


Otras canciones del Artista

© LaCuerda.net · Aviso Legal · Privacidad