Acordes de Guitarra » S »Santana » Just feel better (Tab)

Just feel better
Santana

Letras, Acordes y Tabs para Guitarra, Bajo y Ukulele

  • Wno...aki sta la cancion d Santana y Steven Tyler
    sta s mi 1ra transkripcion...cualkier cosa a mi mail..
    albert_scv@hotmail.com.... Acpto BURLAS, RAJES, JODAS Y
    ALABANSAS..
    
    Intro:
    
    e-----------------------------------------------|
    B---16--15--16--15------------------------------|
    G--------------------15-----15p17--15~~~~~~-----|
    D------------------------17---------------------|
    A-----------------------------------------------|
    E-----------------------------------------------|
    
    
    e-----------------------------------------------|
    B-----------------------------------------------|
    G-----------------------------------------------|
    D-----13--15---17--17--15--13--13--13p15--------|
    A--13-------------------------------------------|
    E-----------------------------------------------|
    
    Escalera hacia el solo...
    
    e-----------------------------------------------|
    B--------------------17-17-19-19-20-20----------|
    G--17-17-18-18-20-20----------------------------|
    D-------------------------------------
  • [E]----11--10-11-10------------------------|
    [B]------------------11--8---11/13-11------|
    [G]----------------------------------------|
    [D]----------------------------------------|
    [A]----------------------------------------|
    [E]----------------------------------------|
    
    [E]----------------------------------------|
    [B]----------------------------------------|
    [G]---8--10-10/12--10--8-8-8-8/10----------|
    [D]-8--------------------------------------|
    [A]----------------------------------------|
    [E]----------------------------------------|
    
    [E]-------------------------------------------------13-15-13-15-|
    [B]----13-16-16---13-16-16---13-16-16---13-16-13-16-------------|
    [G]-------------------------------------------------------------|
    [D]-------------------------------------------------------------|
    [A]-------------------------------------------------------------|
    [E]-------------------------------------------------------------|
    
  • +
    ¡Colabora con nosotros!
    Envíanos tu versión de esta canción






[Just feel better chords][Just feel better cifra]
© LaCuerda.net · aviso legal · privacidad · es · en · pt · contacto
DINAMICO