Acordes de Guitarra » S »Santana » Samba pa tí (Tab)

Samba pa tí
Santana

Letras, Acordes y Tabs para Guitarra, Bajo y Ukulele

  •                      G             Bm             Em
    |-----------------||-------------|---------------|----------------|
    |---------------8-||-------------|-6/7---7h8p7---|----------------|
    |---------7-8h9---||-5h7-----4h7-|---------------|----------------|
    |--7-9-10---------||--------5----|-------------9-|----------------|
    |-----------------||-------------|---------------|----------------|
    |-----------------||-------------|---------------|----------------|
    
      Am7                G             Bm             Em
    |------------------|-------------|---------------|----------------|
    |----------------8-|-------------|-6/7-7--7h8p7--|----------------|
    |----------7-8h9---|-5h7-----4h7-|---------------|----------------|
    |---7-9-10---------|--------5----|-------------9-|----------------|
    |------------------|-------------|---------------|----------------|
    |------------------|-------------|---------------|----------------|
    
     
     Am7                      D             Am7
    |--5h7-5h7p5---------5----|-----7------|--5h7p5h7p5---------------|
    |------------8-(8)p5-8b10-|-----10b12--|------------8----(8)p5----|
    
  • B*-------3-5---3---------3-5------------3-5---3------------8-7-5--
    G*-2-4-5--------------------------2-4-5---------------------------
    D*----------------------------------------------------------------
    A*----------------------------------------------------------------
    E*----------------------------------------------------------------
    
    ---7-5------5--7-8s10-10-10-10-10---7-----------------------------
    -------8-5----------------------------10-8--8-10p8----------------
    ---------------------------------------------------9p7------<7>---
    ---------------------------------------------------------<7>------
    ------------------------------------------------------------------
    ------------------------------------------------------------------
                                                   Armónicos *******
    
    --------------------------------------7-5-5---------5----7----10--
    --5p3-------3h5---------0-3-3h5-3-----------8-8-5-8---------------
    ------4-5-4-----2-------------------------------------------------
    ------------------------------------------------------------------
    ------------------------------------------------------------------
    ------------------------------------------------------------------
    
  • B*-------3h5---3---------3-5------------3h5---3------------8-7-5--
    G*-2-4-5--------------------------2-4-5---------------------------
    D*----------------------------------------------------------------
    A*----------------------------------------------------------------
    E*----------------------------------------------------------------
    
    ---7-5------5--7-8s10-10-10-10-10---7-----------------------------
    -------8-5----------------------------10-8--8-10p8----------------
    ---------------------------------------------------9p7------<7>---
    ---------------------------------------------------------<7>------
    ------------------------------------------------------------------
    ------------------------------------------------------------------
                                                   Armónicos *******
    
    --------------------------------------7-5-5---------5----7----10--
    --5p3-------3h5---------0-3-3h5-3-----------8-8-5-8---------------
    ------4-5-4-----2-------------------------------------------------
    ------------------------------------------------------------------
    ------------------------------------------------------------------
    ------------------------------------------------------------------
    
  • Hola q tal, soy Lualanmi, y aquí les traigo
    algo de Santana. Cualquier me la hacen llegar a Youtube:
    
    Salu2
    
    
    ____________
    Intro:
    |-----------------3-----------------2-2----2h3p2-------|
    |----------3--4h5----1h3----------3--------------3-----|
    |-2--4--5-----------------------4----------------------|
    |-----------------------------5------------------------|
    |------------------------------------------------------|
    |------------------------------------------------------|
    
    |-------------3-----------------2-2----2h3p2-------|
    |-------3-4h5----1h3----------3--------------3-----|
    |-2-4-5---------------------4----------------------|
    |-------------------------5------------------------|
    |--------------------------------------------------|
    |--------------------------------------------------|
    
    
    |-5h7--5h7p5------------------------5h7p5h7p5----------------------------|
    |------------8---5--8b10---10b12---------------8--5--8b10-b8-5-5--h7p5---|
    |-------------------------------------------------------
  • ESTA ROLA ES MAS O MENOS ASI:
    
    G-----------------------------
    D-----------------------------
    A----------2-------------0----
    E---3-------------0-----------
    
    G-----------------------------
    D-----------------------------
    A----------2-------------0----
    E---3-------------0-----------
    
    G----------------------
    D----------------------
    A---5-------------5----
    E----------5-----------
    
    G-----------------------------
    D-----------------------------
    A------------------------5----
    E---5------7------5-----------
    
    G-----------------------------
    D-----------------------------
    A----------2-------------0----
    E---3-------------0-----------
    
    G-----------------------------
    D-----------------------------
    A----------2-------------0----
    E---3-------------0-----------
    
    G----------------------
    D----------------------
    A---5-------------5----
    E----------5-----------
    
    G-----------------------------
    D-----------------------------
    A------------------------5----
    E---5------7-----
  • +
    ¡Colabora con nosotros!
    Envíanos tu versión de esta canción

Letra de Samba pa tí
(w/Fill 1 these 2 measures.........)
Fill 1:
~~~~~~~~~~~~~~~~~~
(w/Fill 2 these three measures...............)
Fill 2: (....doubles 1st gtr....)
Gtr. Solo: double time
~~~~ ~~~~ ~~~~ ~~~~ ~~~~
~~~ ~~~ ~~~ ~~~ ~~~
~~~~ ~~~~ ~~~~ ~~~~ ~~~~
~~~~ ~~ ~~ ~~~~ ~~~~~~~
~~~~~~ ~~~~~~
~~~
~~~~ ~~~
~~~ ~~~~~~~~~~~ ~~~
G (Begin to fade)




[Samba pa tí chords][Samba pa tí cifra]
© LaCuerda.net · aviso legal · privacidad · es · en · pt · contacto