Acordes de Guitarra » S »Santana » Black Magic Woman (Tab)

Black Magic Woman
Santana

Letras, Acordes y Tabs para Guitarra, Bajo y Ukulele

  •                                  Dm                         Am
                I got a black magic woman, I got a black magic woman
                        Dm                                      Gm           
                I got a black magic woman got me so blind I can't see
                    Dm                    A                           Dm
                I got a black magic woman she try'in to make a devil out of me
    
                                     Dm                         Am
                Turn your back on me baby, turn your back on me baby
                        Dm                         Gm           
                Turn your back on me baby don't turn babe
                          Dm                    A                           Dm
                Turn your back on me baby you might just pick up my magic sticks
    
                                     Dm                         Am
                Got your spell on me baby, got your spell on me baby
                                   Dm                         Gm           
                Got your spell on me baby turnin my heart into stone
                   Dm                    A                        Dm
                I need you so bad magic woman I can't leave you alone
    
  • E-------------------------------------------------------------------------------
    B---------------------------------------10-------------------------10-----------
    G--10~~-7-7/9\7~~-10h12p10~~-7-7/9\7~~------12-10p9~--12-10-9\7~-------12-10\9--
                                              .....
    E----------------------10--------10----10---------------------------------------
    B-------------------10--------------13----13-10-13^(15)^13p10---13^(15)~~------ 
    G--12-10-9-------10------------------------------------------------------------
    D-------------12------------------------------
    D----------12---------------------------------
    E-------------------------------------------
                                                  .....
    E-10-------------------------------12-13-12h13p12------------------------------
    B----13-10-------------------10-13----------------13^(15)^13p10----13^(15)----
    G----------12^(14)^12p10\9~~--------------------------------------------------
                         .....         rake      
    E--10----------------------------------------12-13-13/15~~-15^(17)^15p13------
    B-----13p10-------------------------------13------------------------------15--
    G-----------12^(14)^12p10h12~~---------14-------------------------------------
    D-----------------------------------14----------------------------------------
    
    
  • h = hammer on    p = pull off
    b = bend         r = release bend
    \ = slide        ~ = let ring
    
    Intro:
    e|--------------------------------------------------------------------------------|
    B|--8p6~~~~-----------6h8p6~~~~-8----------10--8--6\5~~--8--6--5/3~~--10--8--6\5~~|
    G|----------7/9\7~~~~-------------7/9\7~~-----------------------------------------|
    D|--------------------------------------------------------------------------------|
    A|--------------------------------------------------------------------------------|
    E|--------------------------------------------------------------------------------|                                                      
    
    e|------------------10------|--------------------------------|----------10--------|
    B|--8--6-5--------10--------|--13b15-13-13b15-10-13b15~~~~~--|--13b15~~----13-10--|
    G|--------------10----------|--------------------------------|--------------------|
    D|------------12------------|--------------------------------|----------
  • |----------------------------------------|
    |-8p6------------------6h8p6-----8-------|
    |---------7b9b7---------------------9b7--|
    |----------------------------------------|
    |----------------------------------------|
    |----------------------------------------|
    
    |-5---------------3-----------------5--------------3----------------10-|
    |-----8---65---------6---53----------8---65---------6---53-----10------|
    |-----------------------------------------------------------------10---|
    |----------------------------------------------------------------12----|
    |---------------------------------------------------------------12-----|
    |--------------------------------------------------------------10------|
    
    1st Guitar Solo:
    |------------------------------------------------------------------|
    |-15-13-15b13-10-13b15--b13p10------13b15---15b13p10---------------|
    |----------------------------------------------------12-14b12p10-9-|
    |------------------------------------------------------------------|
    |------------------------------------------------------------------|
    
  • G|------------------------------------------------------------------------------------------------------------ 
    D|------7\3-----------7\3-----------7\3----------7\3----------7\3--------055----055-5/7------------------- 
    A|05--------5-5-05-5----5-5-05-5----5-5-05-5----5-5-05-5----5-5-50-----50---------55-055-055-055- 
    E|------------------------------------------------------------------------------------------------------------ 
      
    
    ------------------------------| 
    ---055----055-------7-------| 
    50-----50-----5/7-5---5\----| 
    ------------------------------| 
    
       verse 
    G|-----5575----5575-------------------------5575-----5575---------------------------5575----------------5575- 
    D|---7-------7-----------5575----5575----7---------7------------5575-----5575---7------------5575---7------- 
    A|5-------5------------7--------7-------5----------5------------7---------7-------5------------7-------5--------- 
    E|--------------------5--------5-------------------------------5---------5-
  • Este es tab para bajo de la rola, en ella hay muchos
    cambios de tono y de ritmo asi que pon mucha atencion
    en eso...
    
     INTRO x4     |
      Dm          |Dm           Gm               Dm  
    G|------------|------------|----------------|------------------|
    D|-7-7-7-7-7s4|--7----7----|----55---55-----|------------------|
    A|5-5-5-5-----|5----5---5--|---5--5-5--5-3s-|53s5553s5553s5553s|
    E|------------|------------|0h3----3----5---|------------------|
    
                                 ( SOLO DE PIANO )
      Gm            Dm           | Dm 
    G|-------------|------------||----5-5-7-5-||
    D|--55-----55--|------------||--7---------||
    A|-5--5---5--5-|--5---s---2-||5-----------||
    E|3----0h3----3|--*LENTO*---||------------||
     
     ( Solo 1 y 2 de guitarra y toda la rola )
      Dm           Am           Dm           Gm
    G|--5575--5575|------------|--5575--5575|------------|
    D|-7-----7----|--5575--5575|-7-----7----|--3353--3353|
    A|5-----5-----|-7-----7----|5-----5-----|-5-----5----|
    E|------------|5
  • +
    ¡Colabora con nosotros!
    Envíanos tu versión de esta canción

Letra de Black Magic Woman
I got a black magic woman, I got a black magic woman
I got a black magic woman got me so blind I can't see
I got a black magic woman she try'in to make a devil out of me
Turn your back on me baby, turn your back on me baby
Turn your back on me baby don't turn babe
Turn your back on me baby you might just pick up my magic sticks
Got your spell on me baby, got your spell on me baby
Got your spell on me baby turnin my heart into stone
I need you so bad magic woman I can't leave you alone




[Black Magic Woman chords][Black Magic Woman cifra]
© LaCuerda.net · aviso legal · privacidad · es · en · pt · contacto