Acordes de Guitarra » S »Santana » Corazón Espinado (Tab)

Corazón Espinado
Santana

Letras, Acordes y Tabs para Guitarra, Bajo y Ukulele

  • Bm            F#m
    Esa mujer me esta matando
    Bm               F#m      
    me a espinado el corazon
    Bm                         F#m
    por mas que trato de olvidarla
    Bm                F#m
    mi alma no da razon
    
    Bm                F#m
    Mi corazona aplastado
    Bm                 F#m
    dolido y abandonado
             Bm             F#m
    A ver a ver tu sabes dime mi amor
       Bm                F#m
    por favor di que dolor nos quedo
    
    coro
    Bm     F#m              Bm            F#m
    
  • Hola soy Lualanmi Anto jejeje, y aquí les traigo
    uno de los mejores solos de la historia de guitarra,
     cualquier duda o comentario me lo hacen en Youtube.
    
    Saludos
    
    1|-----------------------------------------------7--|
    2|--------------------------------------------7-----|
    3|--------------------7--------------------7--------|
    4|----------------7-9---9-7-9~----------------------|
    5|--------------9-----------------------------------|
    6|--------------------------------------------------|
    
    
    
    1|--6--------------------------|
    2|-------7---------------------|
    3|----------9--7------9b--9b~--|
    4|-----------------------------|
    5|-----------------------------|
    6|-----------------------------|
    
    
    
    1|-----------------------7-10-7----|--7~---------------14--17pbr--|
    2|------------------7-10--------10-|---------------15-------------|
    3|--9--6--7--9~--------------------|------------------------------|
    4|---------------------------------|------------------------------|
    5|--------------------------------
  • Bueno esta es mi tercer tablatura y es mi rola favorita, es la
    version original suena de pelos echenle ganas con esta rola
    que la verdad esta facil aunque hay algunas figurillas medio 
    dificiles, pero con practicarlas sale,    ahi les va.
    
    
    Intro
    
    e --------------------7-6--------------------------
    b ------------------7-----7--------7---------------
    g --------7-------7---------9-7-9b---9-6-7-9-------
    d ----7-9---9-7-9----------------------------------
    a --9----------------------------------------------
    e -------------------------------------------------
    
    
    e -----------10--------------14-18b-18-14----------14---14--14--14--14--17---
    b -----10-12----12-10-12--15--------------17-15-17b--17b---17b-17b-17b-17b---
    g --11-----------------------------------------------------------------------
    d ---------------------------------------------------------------------------
    a ---------------------------------------------------------------------------
    e -------------------------
  • -----------------------------------------------------------------------
     Desde aquí avizo que utilizas Hammer On y Pull Off básicamente en
     toda la canción.(al final de la tab está aclarado mejor).
    
    *****************************************************************
    *  Nota: Casi todas las partes rápidas por no decir todas se    *
    *        se utilizan las técnicas conocidas como Hammer On,     *
    *        Pull off, Slice, Vibrato                               *
    *                                                               *
    *  Para más información de que es [Hammer on] entra aquí        *
    *  http://www.youtube.com/watch?v=pnyz3Vn-ks0                   *
    *  En esta pagina también puedes encontrar la simbología        *
    *  http://www.guitarrarockera.com/leerTabs3.html                *
    *                                                               *
    *  h : HAMMER ON                                                *
    * 5h7 = Hammer on del espacio 5 al 7. (Pulsar la cuerda en el   *
    *       espacio 5 y, manteniendo el mismo sonido, pulsar sobre  *
    *       espacio 7).                                             *
    *                                                               *
    *  p : PULL OFF                                                 *
    
  • e ----------------------7-6------------------------|
    b --------------------7-----7--------7-------------|
    g --------4-7-4---4-7---------9-7-9b---9-6-7-9-----|
    d ----4-7-------7----------------------------------|
    a -------------------------------------------------|
    e -------------------------------------------------|
    
    
    e -------7-10-7----7-------14-18b-18-14----------14---14--14--14--14-----|
    b --7-10--------10---15-----------------17-15-17b--17b--17b-17b-17b-17b--|
    g -----------------------------------------------------------------------|
    d -----------------------------------------------------------------------|
    a -----------------------------------------------------------------------|
    e -----------------------------------------------------------------------|
    
    
    e -----------------------------|
    b --17-14-15-17-15-14-14-------|
    g -----------------------15b---|
    d -----------------------------|
    
  • Intro/Coro:
    G---------------------------
    D-----0-0-------------------
    A--2----------------4----4--
    E----------2-2----6----6----
    
    Verso:
    G-------------------------
    D-----0-------------------
    A--2--------------4----4--
    E--------2-2----6----6----
    
    [Coro]
    [Verso]
    [Coro]
    
    Puente:
    G----------------------      G----------------------
    D-----5--------5-5--9--      D----------------------
    A--7-----7-7-----------      A-----5--------5-5--9--
    E----------------------      E--7-----7-7-----------
    
    G----------------------      G----------------------
    D-----5--------5-5--9--      D----------------------
    A--7-----7-7-----------      A-----5----------------
    E----------------------      E--7-----7-7---5--7-7--
     			 
    G----------------------      G-------------------------
    D-------------------7--      D-------------------------
    A--5-----5-5---9-9-----      A---------4-------4-4--9--
    E-----5----------------      E--5-5-5-----5-5----------
    
    G----------------------
    D-----5----
  • Esta es una rola con mucho ritmo y sabor, por lo cual
    el bajo debe marcarse perfectamente y a tiempo OK...
    
    ( intro de guitarra x 4 / todos los solos de guitarra )
      Bm           D            F#m
    G|------------|------------|------------||
    D|------------|------------|------------||
    A|2-----------|5-5---------|------4--4--||
    E|------------|------------|2-2--2--2---||
    
     Esa mujer...
      Bm           D            F#m 
    G|------------|------------|------------||
    D|------------|------------|------------||
    A|2-----------|5-----------|------4--4--||
    E|------------|------------|2-2--2--2---||
    
     Coro 1 y 2 ( Ay, ay, ay )..x4
      Bm           D            F#m
    G|------------|------------|------------||
    D|------------|------------|------------||
    A|2-----------|5-5---------|------4--4--||
    E|------------|------------|2-2--2--2---||
    
     Como duele...x2
      Bm           D            F#m 
    G|------------|------------|------------||
    D|------------|------------|------------||
    A|2--------
  • +
    ¡Colabora con nosotros!
    Envíanos tu versión de esta canción

Letra de Corazón Espinado
Esa mujer me esta matando
me a espinado el corazon
por mas que trato de olvidarla
mi alma no da razon
Mi corazona aplastado
dolido y abandonado
A ver a ver tu sabes dime mi amor
por favor di que dolor nos quedo
Ah ah ah corazon espinado (como duele me duele mama)
Ah ah ah como duele el amor
Como duele como duele el corazon
cuando nos tiene entregados
pero no olvides mujer que algun dia diras
Hay ya yay como me duele el corazon
Como me duele el olvido
como duele el corazon
como me duele estar vivo
Sin tenerte a un lado amor
corazon espinado
corazon espinado...
corazon espinado....




[Corazón Espinado chords][Corazón Espinado cifra]
© LaCuerda.net · aviso legal · privacidad · es · en · pt · contacto