Acordes de Guitarra » S »Santana » Oye Como Va (Tab)

Oye Como Va
Santana

Letras, Acordes y Tabs para Guitarra, Bajo y Ukulele

  •  Am7     D9             Am7      D9              Am7        D9   
    |-5-5--5-5-|--5-5-| |------7-8-10-7|------------|-----7-8-10-7|
    |-5-5--5-5-|--5-5-| |-10-10--------|8/10-(10)\--|10-10--------|
    |-5-5--5-5-|--5-5-| |--------------|------------|-------------|
    |:5-5--5-4-|--4-4:| |:-------------|------------|-------------|
    |----------|------| |--------------|------------|-------------|
    |----------|------| |--------------|------------|-------------|
         Pb                                      END INTRO:   Am7    D9
    |--5------------||5-55-555|-555----5-|5-5-55---|---5--5||-5-5--5-5-|--5-5-|
    |-8-------------||5-55-555|-555-7--5-|5-5-55--7|---5--5||-5-5--5-5-|--5-5-|
    |----^7^(7)(7)^5||5-55-555|-555-7--5-|5-5-55--7|---5--5||-5-5--5-5-|--5-5-|
    |--------------:||--------|------7---|---------|-7-----||:5-5--5-4-|--4-4:|
    |---------------||--------|----------|---------|-------||----------|------|
    |---------------||--------|----------|---------|-------||----------|------|
                       GUITAR SOLO:
    |5-55-555|-555--------||----------------|---------------|--------------|
    |5-55-555|-555-7-5-8\-||-----5-8^5-8-6^7|---------------|---5-8^5-8-6/7|
    |5-55-555|-555-7-5-7\-||----5-----------|-7-(7)^5-7^5---|--5-----------|
    |--------|------------||5^7-------------|--------7---7^5|-7------------|
    |--------|------------||----------------|---------------|--------------|
    
  • Hola q tal, soy Lualanmi, y aquí les traigo
    algo de Santana. Cualquier me la hacen llegar a Youtube:
    
    Salu2
    
    
    ____________
    Intro:
    |-5-5--5-5--5-5-|-5-5--5-5--5-5-|
    |-5-5--5-5--5-5-|-5-5--5-5--5-5-|
    |-5-5--5-5--5-5-|-5-5--5-5--5-5-|
    |-5-5--5-4--4-4-|-5-5--5-4--4-4-|
    |---------------|---------------|
    |---------------|---------------|
    
    1st Guitar Solo (00:15):
    |--------7-8-10-7----------------------7-8-10-7--------------|
    |-10--10----------8h10----------10--10----------8h10---------|
    |-----------------------5-7p5------------------------7b9b7-5-|
    |------------------------------------------------------------|
    |------------------------------------------------------------|
    |------------------------------------------------------------|
    
    |--------7-8-10-7----------------------7-8-10-7--------------|
    |-10--10----------8h10----------10--10----------8h10---------|
    |-----------------------5-7p5------------------------7b9b7-5-|
    |------------------------------------------------------------|
    |-------
  •  Am7     D9             Am7      D9              Am7        D9   
    |-5-5--5-5-|--5-5-| |------7-8-10-7|------------|-----7-8-10-7|
    |-5-5--5-5-|--5-5-| |-10-10--------|8/10-(10)\--|10-10--------|
    |-5-5--5-5-|--5-5-| |--------------|------------|-------------|
    |:5-5--5-4-|--4-4:| |:-------------|------------|-------------|
    |----------|------| |--------------|------------|-------------|
    |----------|------| |--------------|------------|-------------|
         Pb                                      END INTRO:   Am7    D9
    |--5------------||5-55-555|-555----5-|5-5-55---|---5--5||-5-5--5-5-|--5-5-|
    |-8-------------||5-55-555|-555-7--5-|5-5-55--7|---5--5||-5-5--5-5-|--5-5-|
    |----^7^(7)(7)^5||5-55-555|-555-7--5-|5-5-55--7|---5--5||-5-5--5-5-|--5-5-|
    |--------------:||--------|------7---|---------|-7-----||:5-5--5-4-|--4-4:|
    |---------------||--------|----------|---------|-------||----------|------|
    |---------------||--------|----------|---------|-------||----------|------|
                       GUITAR SOLO:
    |5-55-555|-555--------||----------------|---------------|--------------|
    |5-55-555|-555-7-5-8\-||-----5-8^5-8-6^7|---------------|---5-8^5-8-6/7|
    |5-55-555|-555-7-5-7\-||----5-----------|-7-(7)^5-7^5---|--5-----------|
    |--------|------------||5^7-------------|--------7---7^5|-7------------|
    |--------|------------||----------------|---------------|--------------|
    
  • Tab explanations
    -----------------------------------------------------
    >   Accent                 |      /   Slide up
    .   Staccatto              |      \   Slide down
    h   Hammer-on/ pull off    |      :      Harmonic               |      ~   slight bend 
    -----------------------------------------------------
    
    
    Oye Como Va ( Puente )
     ( From the album " Santana's Greatest Hits" )      
     
    * Detune " E " string down 1 whole step to  " D "
    
    ---------------------------------------------------|-------------------------
    ---------------------------------------------------|.------------------------
    --0----0----------0--5--3----0-----0----------5--3-|.---0---0-------0--5--3--
    -------------0---------------------------0---------|------------0------------
                            "Sabor!"
    
    --------------------------------|--------------------------------------------
    -------------------------------.|--.----.-------.--------->----->---.---.----
    --0-----0-------------5---3-
  • Gtr I (E A D G) - 'Standard'
    
    
        Medium Latin Q=128
       4/4
        Gtr I
        E E Q  E E E E   Q  E E E E E E   E E Q  E E E E
    ||-----------------|--------7---5---|----------------|
    ||o-7--------7-----|------7---------|-7--------7-----|
    ||o--------------5-|----------------|--------------5-|
    ||-----------------|----------------|----------------|
    
    
      H    E E E E  4x q  E E E E E E   E E E E E E q
    |------7---5----||----------------|----------------|
    |--------------o||-7--7-7---7-7-7-|---7-7-7--------|
    |--------------o||----------------|---------5-5-5--|
    |---------------||----------------|----------------|
    
    
      q  q  E E E E   E E q  Q  q      E E Q  E E E E
    |---------------|--------------||-----------------|
    |-7--7--7-7-----|--------------||o-7--------7-----|
    |-------------5-|---5-5-----5--||o--------------5-|
    |---------------|--------------||-----------------|
    
    
      Q  E E E E E E   E E Q  E E E E   H    E E E E
    |--------7---5---|----------------|------7---5----||
    
  • +
    ¡Colabora con nosotros!
    Envíanos tu versión de esta canción

Letra de Oye Como Va
Pb END INTRO: Am7 D9
GUITAR SOLO:
~~~~ ~~~
~~~
1/2 [.......INTERLUDE..........]
[..REPEAT..]
BRIDGE: GUITAR SOLO:
[REPEAT WITH FILL] FILL:
1/2
ful ful ful ~~~ ful~
ful ful ful ful 1/2 ful 1/2 1/2 1/2
END SOLO:
\(5)--8^5-8^5^8^5-|8^5-8^5-8^5|-8-5-8-8-8-|(8)^5-8^5--8^5-|
OUTRO: "Uh."
| Jorge Luis Varela |
| adelhier@latino.net.co |
| cualquier duda o sugerencia!!!!!!!!!! |




[Oye Como Va chords][Oye Como Va cifra]
© LaCuerda.net · aviso legal · privacidad · es · en · pt · contacto