Acordes de Guitarra » S »Santana » Maria Maria (Tab)

Maria Maria
Santana

Letras, Acordes y Tabs para Guitarra, Bajo y Ukulele

  • First Verse: Acoustico 
    e------7-8-7-7--/-------7-8-7-8-9-8-7-8-7-8-7-------/------- 
    B---10----------/----10-----------------------10-10-/-----5- 
    G-9-------------/--9--------------------------------/-5-7--- 
    
    e----------------------------/-------------5-8-5------------ 
    B-----5-8-6-5-------5--------/---------5-6-------6-5---5-6-- 
    G-5-7---------7-5-7----------/-------7---------------7------ 
    
    e----------------------------/------------------------------ 
    B-------5-8-6-5-6-5---5------/------------------------------ 
    G---5-7-------------7--------/-----------4-7-5-4-5-4-5-4---- 
    D-7--------------------------/------------------------------ 
    
    e-------5---7---8---10-12-12-12-13/12-13-12-15-13-12-12-13-- 
    B-----5---5---5---5---------------/-----------------------15 
    G-5-7-----------------------------/------------------------- 
    
    e-----7-8-7-10-7-8-8-7-7----/----------/-------------------- 
    B---10------------------10--/----------/------5-8-6-5-6-5--- 
    G-9-------------------
  •                                                                         
    E||------------------|-------------5-7-8--7--7--|--5--5--5--------------|
    B||------------------|-----------5--------------|-----------------------|
    G||------------------|--------------------------|-----------------------|
    D||------------------|--------------------------|-----------------------|
    A||------------------|--------------------------|-----------------------|
    E||------------------|--------------------------|-----------------------|
    
    
                                                                     
    -------5-5-8-7-10--8--7--8--7--8--|--7--5-5--5------------------|
    -----5----------------------------|------------------------5----|
    ----------------------------------|----------------5--7---------|
    ----------------------------------|-----------------------------|
    ----------------------------------|-----------------------------|
    ----------------------------------|-----------------------------|
    
    
    
  • Hola q tal, soy Lualanmi, y aquí les traigo
    algo de Santana. Cualquier me la hacen llegar a Youtube:
    
    Salu2
    
    
    ____________
    Intro and verse: classical guitar
    |------7-8-7-7---|
    |---10-----------|
    |-9--------------|
    |----------------|
    |----------------|
    |----------------|
    
    
    
    |---------8-7-10-8-7-8-7-8-7--------|
    |---10-10--------------------10-----|
    |-9---------------------------------|
    |-----------------------------------|
    |-----------------------------------|
    |-----------------------------------|
    
    
    
    |-------------|
    |-------------|
    |----7-9------|
    |-10----------|
    |-------------|
    |-------------|
    
    
    
    |---------------------------|
    |--------8------------------|
    |----7-9---10-9-7----7-9----|
    |-10--------------10--------|
    |---------------------------|
    |---------------------------|
    
    
    ...maria maria
    |--------------------------------|
    |-------------12-----------------|
    |----------14----14--------------|
    |-12-14-15----------15-14-15-----|
    |--------------------------------|
    |----------------------
  • intro: Am
    
     Am               Dm                                 Am
       Oh, Maria Maria, she reminds me of a west side story,
                               G
        growing up in Spanish Harlem ,
    E                                      Am
        she's living the life just like a movie star.
                     Dm                            Am
        Oh,  Maria Maria, she fell in love in East L.A.
                                 G
        to the sounds of the guitar, yeah, yeah,
    E   - - - - - - - - - -  Am       Am  ~ ~
        played by Carlos Santana.
                  Am                              G              Am
    1. Stop the looting, stop the shooting, pick-pocking on the corner
                    F                           G
        see as the rich is getting richer, the poor is getting poorer.
                    Am                               G
        Se mira, Maria, on the corner, thinking of ways to make it better
    
  •                                                                               
    G||------------------------|------------------------|------------------------|
    D||------------------------|------------------------|------------------------|
    A||--0-----0----0----------|--0-----0----0----------|--0-----0----0----------|
    E||------0---0----------0--|------0---0----------0--|------0---0----------0--|
    
    
                                                                               
    ------------------------|------------------------|------------------------|
    ------------------------|------------------------|------------------------|
    --0-----0----0----------|--0-----0----0----------|--0-----0----0----------|
    ------0---0----------0--|------0---0----------0--|------0---0----------0--|
    
    
                                                                               
    ------------------------|------------------------|------------------------|
    ------------------------|------------------------|---
  • Se toca con un Bajo de seis cuerdas y la afinacion es normal
     (B E A D G B)
    Empezamos!!!
    
      Q=100
     4/4
      
      E S S S S S S +S  S E E E
    |---------------------------|
    |-2-----2-----2-(2)---------|
    |-----2---2---------------2-|
    |---------------------------|
    |---------------------------|
    |---------------------------|
    
    
      E S S S S S S +S  S E Q    E S S S S S S +S  S E E E
    |--------------------------|---------------------------|
    |-2-----2-----2-(2)--------|-2-----2-----2-(2)---------|
    |-----2---2----------------|-----2---2---------------2-|
    |--------------------------|---------------------------|
    |--------------------------|---------------------------|
    |--------------------------|---------------------------|
    
    
      E S S S S S S +S  S E Q    E S S S S S S +S  S E E E
    |--------------------------|---------------------------|
    |-2-----2-----2-(2)--------|-2-----2-----2-(2)---------|
    |-----2---2----------------|-----2---2---------------2-|
    |--------------------------|--
  • Las notas entre parentesis son aspiradas las que
    no tienen nada son las sopladas.
    
    5 5 (5) 5 4 3 4 5 5 (5) 5 4 3 4 5 
    
    (4) 5 5 (5) 5 4 3 4 444 444 44
  • +
    ¡Colabora con nosotros!
    Envíanos tu versión de esta canción






[Maria Maria chords][Maria Maria cifra]
© LaCuerda.net · aviso legal · privacidad · es · en · pt · contacto