Acordes de Guitarra » R »la Rondalla de Saltillo » Quiero Ser (Tab)

Quiero Ser
la Rondalla de Saltillo

Letras, Acordes y Tabs para Guitarra, Bajo y Ukulele

  • e|-----------------------------5---7----------9-7-----------------------|
    B|-2-3-5--5-5/7-5-----5--------------10-9-10------10-9-10-9-7---10--9---|
    G|----------------7-6---7-6-7---------------------------------9---------|
    D|----------------------------------------------------------------------|
    A|----------------------------------------------------------------------|
    E|----------------------------------------------------------------------|
    
    
    Acordes Mietras se toca el Requinto:
    
          LA - LA7 - RE - REm      LA - MI
    
    
        Adorno 1 :          Adorno 2 :
    
    e|------2-------|   e|--------------|
    B|--3-5---3-5---|   B|------2-------|
    G|--------------|   G|--2-4---2-4---|
    D|--------------|   D|--------------|
    A|--------------|   A|--------------|
    
  • saludoz A toda LA bandera  y a esas chikaz lindaz
    
    intro:
    
          A            D                    A                      E
    e-------------------------------------------------------------------
    B----5-5-5p7-5-----5-----10-12--10---10--14-12-10--10----------10---
    G-6-7----------7-6--7-6-7----------13----------------13-13-11-9----13
    
    (esto va arpegeado mas adelante empieza el rasgueo)
    
      A               E
    e--------------------------0--
    B---------2-----------------
    G------2------2--------1----
    D---2---2--2---2----2---2--
    A-0--------------2--------
    E---------------------------
    Quiero dar todo por tiii
     F#m               D
    
  •       A            D                    A                      E
    e-------------------------------------------------------------------
    B----5-5-5p7-5-----5-----10-12--10---10--14-12-10--10----------10---
    G-6-7----------7-6--7-6-7----------13----------------13-13-11-9----13
    
    
    
    Quiero  dar    todo por tiiiii
           A               E
    e--------------0---------------0---
    B----------2-------2-------0-------
    G--------2---2---2---2---1---1-----
    D----------------------------------
    A------0---------------------------
    E----------------------0-----------
    
     Y entregarte un mundo feliiiz
       F#m                      E
    e--------------2--------------0h2-0--
    B----------2-------2--------3--------
    
  • +
    ¡Colabora con nosotros!
    Envíanos tu versión de esta canción

Letra de Quiero Ser
Acordes Mietras se toca el Requinto:
Adorno 1 : Adorno 2 :
--> Empieza arpegiando las cuerdas.
Quiero ser, sólo de ti
Y que tú seas para mi
quiero estar contigo en todas partes
llevarte por igual, conmigo a donde voy (Adorno 2)
--> Aquí y se toca con el rasgueo normal.
No es igual, amarte a ti
que querer a otra mujer
no es igual, quererte como amiga nada mas
que compartir, todo nuestro amor
Quiero ser, (yo quiero ser)
parte de tu ser, habitar en tu interior
ser el nido de tu amor
que mi casa sea tu corazón
--> Requinto Inicial.
--> Acordes Mietras se toca el Requinto:
No es igual, amarte a ti
que querer a otra mujer
no es igual, quererte como amiga nada mas
que compartir, todo nuestro amor
quiero ser, (yo quiero ser)
parte de tu ser, habitar en tu interior
ser el nido de tu amor
que mi casa sea tu corazón
quiero ser, (yo quiero ser)
tu razón de ser, tu poema tu canción
estar juntos ante Dios
y habitar un sólo corazón
que mi casa sea tu corazón
y habitar un sólo corazón
* Esperamos que esta rola sea de tu agrado.
** Cualquier duda, o sugerencia no olviden mandarla al correo.
*** También envien peticiones de canciones de La Rondalla De Saltillo,
nosotros trataremos de sacarlas y compartirlas con ustedes.
Dedicatoria de Eduardo:
Dedico esta rola a la rondalla 'Voces'.....y a sus
integrantes por completo.
No claudiquen en sus propósitos y recuerden ke no
deben tenerle miedo a la vida.
Dedico también esta rola a mi novia Blanqui:
'Quiero ser, todo de ti'.
Dedicatoria de Cristhián:
Bueno, quiero ofrecer esta rola igualmente que
Eduardo, a nuestra rondalla
'Voces', así como también a todas las mujeres que
en algún momento han
formado parte de mi vida.
Bytes !!!




[Quiero Ser chords][Quiero Ser cifra]
© LaCuerda.net · aviso legal · privacidad · es · en · pt · contacto